Alkaline Trio - We've Had Enough Chords & Tabs

 

We've Had Enough Chords & Tabs

Alkaline Trio Chords & Tabs

Version: 4 Type: Bass Tab 0 ratings
1 star 2 stars 3 stars 4 stars 5 stars
comments

We've Had Enough Bass Tab

   
----------------------------------------------------------------------------
	              We've Had Enough - ALKALINE TRIO
----------------------------------------------------------------------------
Tabbed by:Pieper1
Email:skater4life8118@yahoo.com

Tuning:Standard

This song is definitely one of Alk 3's best.
The lyrics and instrumentals are awesome. My band covers this song and it's
fun and easy at the same the time.

I tabbed this because I couldn't find tabs that were 100% correct. No one could
quite get the verse right....they missed that little riff in the middle.
Good luck and enjoy.
E-mail me if I need be corrected. Peace and rock on.

Intro~Run-Up
------------
G|-------------------------------------------------------|
D|-------------------------------------------------------|
A|------77777777-------44444444-------22222222-----------|
E|-20202---------20202----------20202----------245475402-|

Verse 1
-------
G|----------------------------------|       -|
D|----------------------------------|        |
A|----------------------------------|        |
E|-22-222-222-22000-22-222-222-22000|        |
                                             |----Repeat twice
G|----------------------------------------|  |
D|----*(optional but recommended)*--------|  |
A|-------------------------------55554444-|  |
E|-55-555-5-4*(0)-2-2*(0)-77-777----------| -|

Bridge
------
G|----------------------------------|
D|----------------------------------|
A|-----------222222-----------------|
E|-2-0-2-0-2--------2-4-5-4-7-5-4-0-|

Verse 2
-------
G|----------------------------------|       -|
D|----------------------------------|        |
A|----------------------------------|        |
E|-22-222-222-22000-22-222-222-22000|        |
                                             |----Repeat twice
G|----------------------------------------|  |
D|----*(optional but recommended)*--------|  |
A|-------------------------------55554444-|  |
E|-55-555-5-4*(0)-2-2*(0)-77-777----------| -|
[ Tab from: http://www.guitartabs.cc/tabs/a/alkaline_trio/weve_had_enough_btab_ver_4.html ]
Chorus
------
G|------------------------------------|
D|------------------------------------|    x2
A|---------------------------55555555-|
E|-5555555555555555-22222222----------|

Bridge 2
--------
G|----------------------------------|
D|----------------------------------|
A|-----------222222-----------------|
E|-2-0-2-0-2--------2-4-5-4-7-5-4-0-|

Verse 3
-------
G|----------------------------------|       -|
D|----------------------------------|        |
A|----------------------------------|        |
E|-22-222-222-22000-22-222-222-22000|        |
                                             |----Repeat twice
G|----------------------------------------|  |
D|----*(optional but recommended)*--------|  |
A|-------------------------------55554444-|  |
E|-55-555-5-4*(0)-2-2*(0)-77-777----------| -|

Chorus
------
G|------------------------------------|
D|------------------------------------|    x2
A|---------------------------55555555-|
E|-5555555555555555-22222222----------|

Bridge 3
--------
G|----------------------------|
D|----------------------------|
A|---555---777---555-77777777-|  x2
E|-5-----5-----5--------------|

Bridge 4~Chorus
---------------
G|------------------------------------|
D|-7777777777777777-22222222----------|  x4
A|---------------------------44445555-|
E|------------------------------------|

Outro
-----
G|-----------------------|
D|-----------------------|
A|-----------------------|
E|-2-4-5-4-7-5-4-0-2-222-|

         Song Order
   |-------------------|
   |Intro~Run-up     x1|
   |Verse 1	     x2|
   |Bridge	     x1|
   |Verse 2	     x2|
   |Chorus	     x2|
   |Bridge 2~Verse 3 x1|
   |Chorus	     x4|
   |Bridge 3	     x2|
   |Bridge 4~Chorus  x4|
   |Outro	     x1|
   |-------------------|

Symbols
---------------                                          
| /  Slide Down
| \  Slide up
| h  Hammer-on
| p  Pull-off
| ~  Vibrato
| +  Harmonic
| x  Mute note
| /  If underneath a chord it means to "downstrum"
| \  If underneath a chord it means to "upstrum"
| *  Look for a footnote nearby
| () Note is optional buy recommended
============================================================================
Comments