Alkaline Trio - We've Had Enough Chords & Tabs

 

We've Had Enough Chords & Tabs

Alkaline Trio Chords & Tabs

Version: 3 Type: Bass Tab 0 ratings
1 star 2 stars 3 stars 4 stars 5 stars
comments

We've Had Enough Bass Tab

Intro

G|---------------------------------------------------------------------------|
D|---------------------------------------------------------------------------|
A|----------------7777777---------------5555555----------------4444444-----|
E|-22-00-22-00-22--------22-00-22-00-22---------22-00-22-00-22-------------|

G|---------------------------------------------------------------------------|
D|---------------------------------------------------------------------------|
A|---------------------------------------------------------------------------|
E|-22-44-55-44-77-55-44-00--------------------------------------------------|

Verse

G|---------------------------------------------------------------------------|
D|---------------------------------------------------------------------------|
A|--------------------------------------------------------------7777-5555----| X2
E|-22-222-222-222-00-22-222-222-222-00-55-555-555-555-44-77-777-----------|

Break

G|---------------------------------------------------------------------------|
D|---------------------------------------------------------------------------|
A|-------------4444444-------------------------------------------------------|
E|-22-00-22-00---------22-44-55-44-77-55-44-00------------------------------|

Verse
[ Tab from: http://www.guitartabs.cc/tabs/a/alkaline_trio/weve_had_enough_btab_ver_3.html ]
G|---------------------------------------------------------------------------|
D|---------------------------------------------------------------------------|
A|--------------------------------------------------------------7777-5555----| X2
E|-22-222-222-222-00-22-222-222-222-00-55-555-555-555-44-77-777--------------|

Chorus

G|-----------------------------------|
D|-----------------------------------|
A|---------------------555555--------| X2
E|-55555555555-222222----------------|

Break

G|------------------------------------------------|
D|------------------------------------------------|
A|------------------------------------------------|
E|-22-00-22-00-22-0-22-00--22-00-22-00-22-0-22-00-|

Verse Again

G|---------------------------------------------------------------------------|
D|---------------------------------------------------------------------------|
A|--------------------------------------------------------------7777-5555----| X2
E|-22-222-222-222-00-22-222-222-222-00-55-555-555-555-44-77-777--------------|

Chorus Again

G|-----------------------------------|
D|-----------------------------------|
A|---------------------555555--------| X4
E|-55555555555-222222----------------|

Interlude
#= Play 16X   &= Play 6X

G|--------------------------------------------|
D|--------------------------------------------|
A|---5---7---5--7#-------5&----7&----5&----7#-|
E|-5---5---5----------5&----5&----5&----------|

Outro
#= Play 16X   *= Play 8X   != Play 4X   += Play 2X   

G|---------------------------------------------------------------------------|
D|---------------------------------------------------------------------------|
A|-0#-7*-5!-4!-0#-7*-5!-4!---------------------------------------------------|
E|-------------------------2+-4+-5+-7+-0+-5+-4+-0+-2/5\----------------------|
Comments