Alkaline Trio - Warbrain Chords & Tabs

 

Warbrain Chords & Tabs

Alkaline Trio Chords & Tabs

Version: 3 Type: Tab 0 ratings
1 star 2 stars 3 stars 4 stars 5 stars
comments

Warbrain Tab

Artist: Alkaline Trio
Title: Warbrain
Album: rock against bush vol. 1
Email: ihave_a_d_d@hotmail.com


Intro/ Main Riff
The only one i've found tabbed, then theres my way.
----------------------------------|
-7---7---7---7---7---7---7---7----|
---4---4--------------------------|
-----------6---6---4---4---4---4--|
----------------------------------|
----------------------------------|

Or, my way which is easier.
just bar A D and G off at 9

e-----------------------------------------------|
B-----------------------------------------------|
G---11---11---11-----11----11---11---11---11----|
D------9----9-----------------------------------|
A-----------------11----11----9----9----9----9--|
E-----------------------------------------------|
[ Tab from: http://www.guitartabs.cc/tabs/a/alkaline_trio/warbrain_tab_ver_3.html ]
Verse
----------------------------------|
----------------------------------|
--------------444-----------------|
--666---222---444---4444444-------|
--666---222---222---4444444-------|
--444---000---------2222222-------|

Prechorus?  3x                 Chorus
-------------------------|------------------------|---------------------------|
-------------------------|------------------------|---------------------------|
-------------------------|------------------------|---------------------------|
--2222222222-66666-44444-|-2222222222-44444-22222-|--2~-----------------------|
--2222222222-66666-44444-|-2222222222-44444-22222-|--2~-----------------------|
--0000000000-44444-22222-|-0000000000-22222-00000-|--0~-----------------------|

Then just listen to the song for the structure.
Comments