Alkaline Trio - Warbrain Chords & Tabs

 

Warbrain Chords & Tabs

Alkaline Trio Chords & Tabs

Version: 2 Type: Tab 0 ratings
1 star 2 stars 3 stars 4 stars 5 stars
comments

Warbrain Tab

#----------------------------------PLEASE NOTE--------------------------------#
#This file is the author's own work and represents their interpretation of the#
#song. You may only use this file for private study, scholarship, or research.#
#-----------------------------------------------------------------------------#
#-- File created with Instab - http://www.pconline.com/~smcarey/instab.html --#
#-----------------------------------------------------------------------------#

Author/Artist: alkaline trio
Title: war brain
Album: rock against bush vol. 1
Transcribed by: weeman
Email: alkalinetrio6204@aol.com
[ Tab from: http://www.guitartabs.cc/tabs/a/alkaline_trio/warbrain_tab_ver_2.html ]
----------------------------------|----------------|--------------------------
-7---7---7---7---7---7---7---7----|----------------|--------------------------
---4---4--------------------------|-------44-------|--------------------------
-----------6---6---4---4---4---4--|-66-22-44-44444-|--------------------------
----------------------------------|-66-22-22-44444-|--------------------------
----------------------------------|-44-00----22222-|--------------------------
 intro & riff (played with verse) 			verse x4                               

-------------------------|------------------------|---------------------------
-------------------------|------------------------|---------------------------
-------------------------|------------------------|---------------------------
--2222222222-66666-44444-|-2222222222-44444-22222-|--2~-----------------------
--2222222222-66666-44444-|-2222222222-44444-22222-|--2~-----------------------
--0000000000-44444-22222-|-0000000000-22222-00000-|--0~-----------------------
       chorus x3   then>    end of each chorus    end on                    

order:

feedback then pick scrape
intro		x2
verse		x4
chorus	x3
riff		x2
verse		x4
chorus	x3
riff		x2
end
Comments