Alkaline Trio - Warbrain Chords & Tabs

 

Warbrain Chords & Tabs

Alkaline Trio Chords & Tabs

Version: 1 Type: Tab 0 ratings
1 star 2 stars 3 stars 4 stars 5 stars
comments

Warbrain Tab

   
----------------------------------------------------------------------------
			     WARBRAIN - Alkaline Trio
----------------------------------------------------------------------------
Tabbed by: Jesse Benedick
Email: JBMETAL311@YAHOO.COM
Rock Against Bush Comp.

Tuning: Standard
[ Tab from: http://www.guitartabs.cc/tabs/a/alkaline_trio/warbrain_tab.html ]
e|-----|----------------------|-------------------------------------|
B|--9--|----------------------|--7---7---7---7---7---7---7---7------|
G|--x--|------------4---------|----4---4----------------------------|
D|--6--|--6----2----4----4----|------------6---6---4---4---4---4----|
A|-----|--6----2----2----4----|-------------------------------------|
E|-----|--4----0---------2----|-------------------------------------|
        Main Chords            Main Riff
e|-----------------------------------------------------------------------|
B|-----------------------------------------------------------------------|
G|-----------------------------------------------------------------------|
D|--2------6--4------2------6--4------2------6--4-------2------4----2----|
A|--2------6--4------2------6--4------2------6--4-------2------4----2----|
E|--0------4--2------0------4--2------0------4--2-------0------2----0----|
 Chorus Chords

| /  slide up
| \  slide down
| h  hammer-on
| p  pull-off
| ~  vibrato
| +  harmonic
| x  Mute note
============================================================================
Comments