Alkaline Trio - Tuck Me In Chords & Tabs

 

Tuck Me In Chords & Tabs

Alkaline Trio Chords & Tabs

Version: 1 Type: Tab 0 ratings
1 star 2 stars 3 stars 4 stars 5 stars
comments

Tuck Me In Tab

Alkaline Trio - Tuck Me In
Tabbed By: Daniel Taylor
EMail: danielt88@hotmail.com

Intro

e------------------------------------------
B------------------------------------------
G---9-----5---------5----7-----------------
D---9-----5---------5----7-----------------
A---7-----3---------3----5-----------------
E------------------------------------------

Main Riff/Verses

e-----------------------------------------
B-----------------------------------------
G--9-9-9-9-9-9-9-9--5-5-5-5--7-7-7-7------
D--x-x-x-x-x-x-x-x--5-5-5-5--7-7-7-7------
A--7-7-7-7-7-7-7-7--3-3-3-3--5-5-5-5------
E-----------------------------------------

Chorus
[ Tab from: http://www.guitartabs.cc/tabs/a/alkaline_trio/tuck_me_in_tab.html ]
e-------------------------------------------------------------
B-------------------------------------------------------------
G---12-12-12-12-12-12-12-12-------------5-5-5-5---7-7-7-7-----
D----x--x--x--x--x--x--x--x---5-5-5-5---5-5-5-5---7-7-7-7-----
A---10-10-10-10-10-10-10-10---5-5-5-5---3-3-3-3---5-5-5-5-----
E-----------------------------3-3-3-3-------------------------

e-------------------------------------------------------------
B-------------------------------------------------------------
G---12-12-12-12-12-12-12-12-------------5-5-5-5---7-7-7-7-----
D----x--x--x--x--x--x--x--x---5-5-5-5---5-5-5-5---7-7-X-X-----
A---10-10-10-10-10-10-10-10---5-5-5-5---3-3-3-3---5-5-5-5-----
E-----------------------------3-3-3-3-------------------------

Bridge

e-------------------------------------------------------------
B-------------------------------------------------------------
G---9-9-9-9-9-9-9-9-9-9-9-9---4-5-5-5-5-5-5--7-7-7-7-7-7------
D---x-x-x-x-x-x-x-x-x-x-x-x---4-5-5-5-5-5-5--7-7-7-7-7-7------
A---7-7-7-7-7-7-7-7-7-7-7-7---2-3-3-3-3-3-3--5-5-5-5-5-5------
E-------------------------------------------------------------
Comments