Alkaline Trio - Time To Waste Chords & Tabs

 

Time To Waste Chords & Tabs

Alkaline Trio Chords & Tabs

Version: 2 Type: Tab 0 ratings
1 star 2 stars 3 stars 4 stars 5 stars
comments

Time To Waste Tab

this song rules so i thought ide tab it.


after piano part he plays, kinda weird strumming but youll get it.
--------------------------------------------------|
--------------------------------------------------|
-11----14-13-11-------14-13-11--------------------|
-11----x--x--x----12--x--x--x---------------------|
-9-----12-11-9----12--12-11-9---------------------|
-9----------------10------------------------------|
[ Tab from: http://www.guitartabs.cc/tabs/a/alkaline_trio/time_to_waste_tab_ver_2.html ]
chorus chords are simple
--------------------------------------------------|
--------------------------------------------------|
--------------------------------------------------|
------9--7----------------------------------------|
--7---7--5----------------------------------------|
--5-----------------------------------------------|

bridge type thing goes

--------------------------------------------------------------|
--------------------------------------------------------------|
--------14-13-11------14-13-9------14-13-11----14-------------|
--4-----x--x--x----5--x--x--x---6--x--x--x--7--x----9-7-------|
--4-----12-11-9----5--12-11-7---6--12-11-9--7--12---7-5-------|
--2----------------3------------4-----------5-----------------|

then back to chorus. boom. you can now play alkaline trio time to waste.
Comments