Alkaline Trio - Time To Waste Chords & Tabs

 

Time To Waste Chords & Tabs

Alkaline Trio Chords & Tabs

Version: 1 Type: Tab 0 ratings
1 star 2 stars 3 stars 4 stars 5 stars
comments

Time To Waste Tab

ALKALINE TRIO
TIME TO WASTE
CRIMSON

This is off their new album due may 24th

Just work out the strumming pattern by listening to the song, its not hard.

INTRO 1
e-----------------------------------------|
b-----------------------------------------|
g------14-13-11---------------------------|
d--12-------------------------------------|
a-----------------------------------------|
e-----------------------------------------|

This is just a bit of the piano intro if its played over and over it sounds alright.

e-----------------------------------------|
b-----------------------------------------|
g-----------------------------------------|
d--4--------------------------------------|
a--4--------------------------------------|
e--2--------------------------------------|

Matt just plays this and lets it ring while the piano continues.

[ Tab from: http://www.guitartabs.cc/tabs/a/alkaline_trio/time_to_waste_tab.html ]
INTRO 2
e-----------------------------------------|
b-----------------------------------------|
g-11--14-13-11-9-----14-13-11-9-----------| 
d-11---x--x--x-x--12--x--x--x-x-----------|x 2
a--9--12-11--9-7--12-12-11--9-7-----------|
e--9--------------10----------------------|

VERSE
e-----------------------------------------|
b-----------------------------------------|
g-----------------------------------------|
d-4---------------------------------------|
a-4---------------------------------------|
e-2---------------------------------------|

CHORUS
e-----------------------------------------|
b-----------------------------------------|
g-----9--7--------------------------------|
d--7--9--7--------------------------------|
a--7--7--5--------------------------------|
e--5--------------------------------------|

PRE VERSE
      (i)            (ii) 
e--------------|--------------------------|
b--------------|--------------------------|
g-----9--7-----|--------------------------|
d--4--x--x-----|--4--6--7-----------------|
a--4--7--5-----|--4--6--7-----------------|
e--2-----------|--2--4--5-----------------|

VERSE

CHORUS

INTRO 1

INTRO 2

CHORUS

PRE VERSE (i)

for corrections email me at e_mericana@hotmail.com
Comments