Alkaline Trio - Time To Waste Chords & Tabs

 

Time To Waste Chords & Tabs

Alkaline Trio Chords & Tabs

Version: 5 Type: Bass Tab

Time To Waste Bass Tab

   
ALKALINE TRIO - TIME TO WASTE

STANDARD TUNING

G
D
A
E

ALOT OF TABS I HAVE SEEN ON THIS WEBSITE AND OTHERS ON THE INTERNET AREN'T QUITE RIGHT
(that's why they are 1 and 2 star) THAT IS WHY I DECIDED TO PUT ALOT OF TIME AND EFFORT
INTO THIS TAB AS IT IS A QUALITY SONG. IT PLAYS SIMILAR TO THE LEAD GUITAR BUT VERSE IS
DIFFERENT AND HERE YOU CAN SEE THIS.

INTRO - YOU CAN TRY TO DO THE PIANO, ALL I CAN SAY IS GOOD LUCK.
        FROM THERE ON IN I CAN HELP YOU.

PLAY BOTH LINES THEN REPEAT THEM BOTH

G----------------------------------------------|
D----------------------------------------------|
A---------------4444-12121212---11111111-9999--|
E-2--------------------------------------------|
                       (12'S AND 11'S)

G--------------------------------|
D--------------------------------|
A-5555-12121212---11111111-5555--|
E--------------------------------|
        (12'S AND 11'S)

VERSE

G-----------------------------------------------------------------|
D-----------------------------------------------------------------|
A-----------------------------------------------------------------|
E-2-(X16)--0-(X16)--2-(X16)--00000000-22222222-44444444-5555-2222-|
[ Tab from: http://www.guitartabs.cc/tabs/a/alkaline_trio/time_to_waste_btab_ver_5.html ]
G--------------------------------------------------------|
D--------------------------------------------------------|
A---------------------------------5555-77777777-55555555-|
E-00000000-22222222-44444444-5555------------------------|

CHORUS

G-------------------------|
D-------------------------|
A------------------5-(X8)-|  X3
E-5-(X16)--2-(X8)---------|

G-------------------------|
D-------------------------|
A------------------5--7---|
E-5-(X16)--2-(X8)---------|

INTERLUDE/INTRUMENTAL

G-----------------------------------------|
D-----------------------------------------|
A------------77777777---99999999----------|
E-22222222------------------------2--4--0-|

THE NEXT VERSE AND CHORUS ARE EXACTLY THE SAME AS BEFORE

BRIDGE

G------------------------------------------------------------|
D------------------------------------------------------------|
A-----4444------5555------5555------6666------5555------7--5-|
E-2----------------------------------------------------------|

CHORUS AGAIN THEN ENDING

G-------------------------------------------|
D-------------------------------------------|
A-----------------------77777777---99999999-|
E-22222222---22222222-----------------------|

I AM FAIRLY SURE THIS SHOULD GET GOOD RATING BECAUSE IT SOUNDS PERFECT
TO ME AND IT IS ALL IN TIME SO ENJOY.