Alkaline Trio - This Is Getting Over You Chords & Tabs

 

This Is Getting Over You Chords & Tabs

Alkaline Trio Chords & Tabs

Version: 3 Type: Tab 0 ratings
1 star 2 stars 3 stars 4 stars 5 stars
comments

This Is Getting Over You Tab

   
ALKALINE TRIO
THIS IS GETTING OVER YOU
THE ALKALINE TRIO

INTRO     
e|------|          
B|------|          
G|-777xx|          
D|-777xx| x12     
A|-555xx|          
E|------|

INTRO pt 2 
e|---------------------------------------------------------|
B|---------------------------------------------------------|
G|-777xx-777xx-777xx-777xx-111111xx-111111xx-66666-999-777-|
D|xxxxxxxxxxxxxxxxxxxxxxxxxxxxxxxxxxxxxxxxxxxxxxxxxxxxxxxxx| x2
A|-555xx-555xx-555xx-555xx--9-9-9xx--9-9-9xx-44444-777-555-|
E|---------------------------------------------------------|

VERSE 1
e|--------------------------------------|
B|--------------------------------------|
G|7-------------------------------------|
D|7-------------------------------------|
A|5-------------------------------------|
E|--------------------------------------|

VERSE 2 
E|---------------------------------------------------------|
B|---------------------------------------------------------|
G|-77777777777777777777777-1111111111111111-666666-999-777-|
D|-xxxxxxxxxxxxxxxxxxxxxxxxxxxxxxxxxxxxxxxxxxxxxxxxxxxxxxx-|x 2
A|-55555555555555555555555--9-9-9-9-9-9-9-9-444444-777-555-|
E|---------------------------------------------------------|
[ Tab from: http://www.guitartabs.cc/tabs/a/alkaline_trio/this_is_getting_over_you_tab_ver_3.html ]
CHORUS
e|---------------------------------------|
B|---------------------------------------|
G|12-11-9-6-7-777777777777---------------|
D|xx-xx-x-x-x-777777777777-7777777777777-|
A|10--9-7-4-5-555555555555-7777777777777-|
E|-------------------------5555555555555-|

INTRO pt 2 

VERSE 1 

VERSE 2

CHORUS

e|-----------------------------------|
B|-----------------------------------|
G|-12-11-9-6-7-6-7-------------------|
D|-x--x--x-x-7-6-7-7-----------------|
A|-10--9-7-4-7-4-5-7-----------------|
E|-----------------5-----------------|

OUTRO 1 
e|---------------------------------------------|  
B|---------------------------------------------|  
G|-77777777777-6666666666-44444444444444444466-|X4
D|-77777777777-6666666666-44444444444444444466-|  
A|-55555555555-4444444444-22222222222222222244-|  
E|---------------------------------------------| 

OUTRO 2
e|-----------------------------------------------------|
B|-----------------------------------------------------|
G|-----------------77-77-66-66-44-44-------------------|
D|---------------2-77-77-66-66-44-44-777777777777777777|
A|-5-4---3-2---2-0-55-55-44-44-22-22-777777777777777777|
E|-----------------------------------555555555555555555|


OUTRO 3 
e|--------------------------------------------------------|
B|--------------------------------------------------------|
G|-7777777777777-6666666666666-444444444444-2222222222222-| 
D|-7777777777777-6666666666666-444444444444-2222222222222-|x4
A|-5555555555555-4444444444444-222222222222-0000000000000-|
E|--------------------------------------------------------|

end on  

e|----|
B|----|
G|-7--|
D|-7--|
A|-5--|
E|----|

For corrections email me at e_mericana@hotmail.com
Comments