Alkaline Trio - The Poison Chords & Tabs

 

The Poison Chords & Tabs

Alkaline Trio Chords & Tabs

Version: 1 Type: Tab 2 ratings
1 star 2 stars 3 stars 4 stars 5 stars
comments

The Poison Tab

main riff:
e|-1-2-1-0---------2-1-0-------1-2-1-0--------2-1-0----------|
B|---------3-2-0-3--------3-0----------3-2-0-3-------3-2-0-3-|
G|-----------------------------------------------------------|
D|-----------------------------------------------------------|
A|-----------------------------------------------------------|
E|-----------------------------------------------------------|

Verse:
e|--------------------------------------|
B|--------------------------------------|
G|--------------------------------------|
D|-4-4-4-4--2-2-2-2---------------------| x4
A|-2-2-2-2--0-0-0-0--4-4-4-4--5-5-5-5---|
E|-------------------2-2-2-2--3-3-3-3---|

chorus:
e|-----------------------------|
B|-----------------------------|
G|-7-7-7-7---------------------|
D|-7-7-7-7--7-7-7-7--5-5-5-5---| x3
A|-5-5-5-5--7-7-7-7--5-5-5-5---|
E|----------5-5-5-5--3-3-3-3---|

e|--------------------|
B|--------------------|
G|--------------------|
D|-4-4-4-4-4-4-4-4-4--|
A|-4-4-4-4-4-4-4-4-4--|
E|-2-2-2-2-2-2-2-2-2--|
[ Tab from: http://www.guitartabs.cc/tabs/a/alkaline_trio/the_poison_tab.html ]
Riff again then back to Verse the chorus:

bridge:
e|--------------------------------------|
B|--------------------------------------|
G|-4-4-4-4--7-7-7-7---------------------|
D|-4-4-4-4--7-7-7-7-4-4-4-4--5-5-5-5----| x3
A|-2-2-2-2--5-5-5-5-4-4-4-4--5-5-5-5----|
E|------------------2-2-2-2--3-3-3-3----|
  "and now i fight with the words"
  "and i cant see so good"
bridge last time:
e|------------------------------------------------|
B|------------------------------------------------|
G|-4-4-4-4--7-7-7-7-------------------------------|
D|-4-4-4-4--7-7-7-7--4-4-4-4-4-4-4--5-5-5-5-5-5-5-|
A|-2-2-2-2--5-5-5-5--4-4-4-4-4-4-4--5-5-5-5-5-5-5-|
E|-------------------2-2-2-2-2-2-2--3-3-3-3-3-3-3-|

Back To chorus:

Ends on bridge and Riff at same time(2 guitars)

End
e|------|
B|------|
G|------|
D|------| just slide your fingers down slowly or you could do 
A|-9/---| a full chord bend up on step on the 1st fret and bring it  down
E|-7/---|

any corrections or requests e-mail me at 251186@edu.col-westanglia.ac.uk
Comments