Alkaline Trio - Stupid Kid Chords & Tabs

 

Stupid Kid Chords & Tabs

Alkaline Trio Chords & Tabs

Version: 2 Type: Bass Tab 0 ratings
1 star 2 stars 3 stars 4 stars 5 stars
comments

Stupid Kid Bass Tab

Alkaline Trio-Stupid Kid
tabbed by: rancidbass220
ok the other tabs messed up. heres the correct one.

wait for the guitar part then:

Intro:
G|----------------------------------------|
D|----------------------------------------| 2x
A|22222-----------------------------------|
E|------000-4444-2222-44444-000-4444-2222-|

Verse 1:
G|------------|
D|------------| 3x
A|222---------|
E|----222-000-|

then
G|-------------------|
D|-------------------|
A|222----------------|
E|----222-2-00000000-|

Verse 2:
G|------------|
D|------------| 2x
A|222---------|
E|----222-000-|

Then:
G|-------------------------------|
D|----2p1------------------------|
A|222----4p2---------222---------|
E|-----------222-000-----222-000-|

Chours:
G|------------------|    |-------------------------|
D|------------------|2x  |-------------------------|
A|22222222----------|then|22222222-----------------|
E|---------4444-2222|    |---------4444-2222-0-2-0-|

Intro
[ Tab from: http://www.guitartabs.cc/tabs/a/alkaline_trio/stupid_kid_btab_ver_2.html ]
Verse 3:
G|------------------|
D|------------------| 2x
A|2-222-------------|
E|------2-222-0-000-|

Then:
G|--------------------------------|
D|----2p1-2h4---------------------|
A|222-----------------222---------|
E|------------222-000-----222-000-|

Chours:
G|------------------|    |-------------------------|
D|------------------|2x  |-------------------------|
A|22222222----------|then|22222222-----------------|
E|---------4444-2222|    |---------4444-2222-0-2-0-|

Intro

Bridge:
G|------------------8--8--6--6-----------------------------|
D|----------------66-66-44-44------------------------------|
A|222-222/777-777--------------222-222---------------------|
E|------------------------------------000-000-444-444-2-22-|

Chours:
G|------------------|    |-------------------------|
D|------------------|2x  |-------------------------|
A|22222222----------|then|22222222-----------------|
E|---------4444-2222|    |---------4444-2222-0-2-0-|

End on A|-2-|

Thats All.correct it if you don't like it. and remember Alkaline Trio rocks!
Comments