Alkaline Trio - Stupid Kid Chords & Tabs

 

Stupid Kid Chords & Tabs

Alkaline Trio Chords & Tabs

Version: 1 Type: Bass Tab 0 ratings
1 star 2 stars 3 stars 4 stars 5 stars
comments

Stupid Kid Bass Tab

Artist: Alkaline Trio 
Title: Stupid Kid 
Album: From Here To Infirmary 
Tabbed by: Andy Hayes Email: pandobrat@hotmail.com
Intro
G:------------------------------------------|
D:------------------------------------------|  
A:-----7-7-7-6-6-6-4-4-------7-7-7-6-6-4-4--| 2x 
E:-7-7-------------------4-4----------------| 
Verse 
G:----------------------|  
D:----------------------|
A:----------------------| 
E:-7-7---------4-4--2-2-| 
Verse
G:----------------------|  
D:----------------------|
A:----------------------| 
E:-7-7---------4-4--2-2-| 
Verse
G:----------------------|  
D:----------------------|
A:-----77-5/4-----------| 
E:-7-7---------4-4--2-2-|
Verse
G:----------------------|  
D:----------------------|
A:----------------------| 
E:-7-7---------4-4--2-2-|
After That
G:------------------------------------------|
D:------------------------------------------|  
A:-----7-7-7-6-6-6-4-4-------7-7-7-6-6-4-4--| 2x 
E:-7-7-------------------4-4----------------| 
Chorus 
G:---------------------------|  
D:---------------------------|
A:-2-x8----------------------|  
E:----------4-x4-------2-x4--|
Bridge
G:-------------------------------------------------------|  
D:-------------------------------------------------------|  
A:-------------------------------------------------------|  
E:---7-7-7-7-7-7-7-7-7-7-7-7-7--4-4-4-4-4-4-2-2-2-2-2-2--|  
  
G:------------------------------------------------------|  
D:------------------------------------------------------|  
A:--------------------------------------7-7-7-6-6-4-4---|  
E:-7-7-7-7-7-7-7-7-7-7-7-7-7-4-4-4-4-4------------------|
[ Tab from: http://www.guitartabs.cc/tabs/a/alkaline_trio/stupid_kid_btab.html ]
Comments