Alkaline Trio - Steamer Trunk Chords & Tabs

 

Steamer Trunk Chords & Tabs

Alkaline Trio Chords & Tabs

Version: 1 Type: Tab 0 ratings
1 star 2 stars 3 stars 4 stars 5 stars
comments

Steamer Trunk Tab

ALKALINE TRIO
STEAMER TRUNK
FROM HERE TO INFIRMARY

INTRO
e----------------------------------------------|
B--555-----------------------------------------|
G--666----------11-11-11-11-11---9-9-9-9-9-----|
D--777----9-9---11-11-11-11-11---9-9-9-9-9-----|x 2
A--000----0-0---9--9--9--9--9----7-7-7-7-7-----|
E----------------------------------------------|

VERSE
e----------------------------------------------|
B--5-------------------------------------------|
G--6----------11---9-9-9-9-9-------------------|
D--7----9-----11---9-9-9-9-9-------------------|x 2
A--0----0------9---7-7-7-7-7-------------------|
E----------------------------------------------|
[ Tab from: http://www.guitartabs.cc/tabs/a/alkaline_trio/steamer_trunk_tab.html ]
END OF VERSE
e----------------------------------------------|
B--5-------------------------------------------|
G--6----------11---9-9-9-9-9-7-7-7-7-6-6-6-4-4-|
D--7----9-----11---9-9-9-9-9-x-x-x-x-x-x-x-x-x-|x 1 
A--0----0------9---7-7-7-7-7-5-5-5-5-4-4-4-2-2-|
E----------------------------------------------|

INTRO X 2

VERSE X 2

END OF VERSE X 1

CHORUS
e--------------------------------------------------------|
B--------------------------------------------------------|
G-----------7-7-7-7--------------------------------------|
D-7-7-7-7---7-7-7-7---4-4-4-4---2-2-2-2------------------|x 2
A-7-7-7-7---5-5-5-5---4-4-4-4---2-2-2-2---4-4-4--2-2-2---|
E-5-5-5-5-------------2-2-2-2---0-0-0-0---0-0-0--0-0-0---|

INTRO X 2

VERSE X 2

END OF VERSE X 1

CHORUS X 2

BRIDGE
e---------------------------|
B-----5-----5---------------|
G---6--6--6--6--------------|
D-7-------------------------|x 8
A---------------------------|
E---------------------------|

*PICKSLIDE*

CHORUS X 2

For corrections email me at e_mericana@hotmail.com
Comments