Alkaline Trio - Stained In Satin Chords & Tabs

 

Stained In Satin Chords & Tabs

Alkaline Trio Chords & Tabs

Version: 1 Type: Tab 0 ratings
1 star 2 stars 3 stars 4 stars 5 stars
comments

Stained In Satin Tab

   
ALKALINE TRIO
STAINED IN SATIN
CRIMSON

this song is off their new album due out may 24th listen to the cd for the strumming pattern

INTRO
E----------------------------------------------------------------|
B-10101010-12121212-13131313-121212121212-88888888-666666-555555-|
G----------------------------------------------------------------|
D----------------------------------------------------------------|
A----------------------------------------------------------------|
E----------------------------------------------------------------|

E----------------------------------------------------------------|
B-10101010-12121212-13131313-121212-13131313-12121212-1313131313-|
G----------------------------------------------------------------|
D----------------------------------------------------------------|
A----------------------------------------------------------------|
E----------------------------------------------------------------|
[ Tab from: http://www.guitartabs.cc/tabs/a/alkaline_trio/stained_in_satin_tab.html ]
E----------------------------------------------------------------|
B-10101010-12121212-13131313-121212121212-88888888-666666-555555-|
G----------------------------------------------------------------|
D----------------------------------------------------------------|
A----------------------------------------------------------------|
E----------------------------------------------------------------|

E----------------------------------------------------------------|
B-10101010-12121212-13131313-121212-1717171717-181818-1515151515-|
G----------------------------------------------------------------|
D----------------------------------------------------------------|
A----------------------------------------------------------------|
E----------------------------------------------------------------|

VERSE
E-----|
B-----|
G--2--|
D--2--|
A--0--|
E-----|

PRE CHORUS
E----------------------|
B----------------------|
G--2-------------------|
D--2--5--3-------------| x 2
A--0--5--3-------------|
E-----3--1-------------|

CHORUS
E----------------------|
B----------------------|
G--2--5----------------|
D--2--5--3--5----------| x 4
A--0--3--3--5----------|
E--------1--3----------|

VERSE

PRE CHORUS x 2 

CHORUS x 4

INTERLUDE
E----------------------|
B----------------------|
G--9--10--7--9--10-----|
D--7--10--7--9--10-----| x 3
A--0---8--5--7---8-----|
E----------------------|

CHORUS x 4

END ON
E-----|
B-----|
G--2--|
D--2--|
A--0--|
E-----|

for corrections email me at e_mericana@hotmail.com
Comments