Alkaline Trio - Sorry About That Chords & Tabs

 

Sorry About That Chords & Tabs

Alkaline Trio Chords & Tabs

Version: 2 Type: Tab 0 ratings
1 star 2 stars 3 stars 4 stars 5 stars
comments

Sorry About That Tab

   
Artist:  Alkaline Trio
Song:    Sorry About That
Album:   goddamnit

Justin Kraft (jak7775@rit.edu)

This song rocks.  Enjoy :]


(x) - note x is optional (sort of)
/   - slide down
\   - slide up
x   - muted/not played

acoustic, normal tuning

Verse
        A       E       D
e|-----(5)-------------(5)-----|
B|-----(5)-----(9)-----(7)-----|
G|------6-------9-------7------|
D|------7-------9-------7------|
A|------7-------7-------5------|
E|------5----------------------|

        A       E       D
e|-----(5)-----(0)-----(5)-----|
B|-----(5)-----(0)-----(7)-----|
G|------6-------1-------7------|
D|------7-------2-------7------|
A|------7-------2-------5------|
E|------5------(0)-------------|


Chorus
        A       D       F#m     E
e|-----(5)-----(5)-----(2)-----(0)-----|
B|-----(5)-----(7)-----(2)-----(0)-----|
G|------6-------7-------2-------1------|
D|------7-------7-------4-------2------|
A|------7-------5-------4-------2------|
E|------5---------------2------(0)-----|
[ Tab from: http://www.guitartabs.cc/tabs/a/alkaline_trio/sorry_about_that_tab_ver_2.html ]
        A       D       E
e|-----(5)-----(5)---------------------------------|
B|-----(5)-----(7)-----(9)-------------------------|
G|------6-------7-------9----(7)-7/6/4-------------|
D|------7-------7-------9----(7)-x/x/x----7/6\7----|
A|------7-------5-------7----(5)-5/4/2----x/x\x----|
E|------5---------------------------------5/4\5----|


Ending

        A  Asus2 A     E
e|-----(5)--------------------|
B|-----(5)------------(9)-----|
G|------6-----6--6-----9------|
D|------7-----9--7-----9------|
A|------7-----7--7-----7------|
E|------5-----5--5------------|

        A  Asus2 A     E     D
e|-----(5)--------------------------|
B|-----(5)------------(9)---(7)-----|
G|------6-----6--6-----9-----7------|
D|------7-----9--7-----9-----7------|
A|------7-----7--7-----7-----5------|
E|------5-----5--5------------------|

        A  Asus2 A     E
e|-----(5)--------------------|
B|-----(5)------------(9)-----|
G|------6-----6--6-----9------|
D|------7-----9--7-----9------|
A|------7-----7--7-----7------|
E|------5-----5--5------------|

        A  Asus2 A     E    (D)               A
e|-----(5)-----------------------------------(5)--|
B|-----(5)------------(9)--------------------(5)--|
G|------6-----6--6-----9----(7)-7/6/4---------6---|
D|------7-----9--7-----9----(7)-x/x/x--7/6\7--7---|
A|------7-----7--7-----7----(5)-5/4/2--x/x\x--7---|
E|------5-----5--5---------------------5/4\5--5---|
Comments