Alkaline Trio - Snake Oil Tanker Chords & Tabs

 

Snake Oil Tanker Chords & Tabs

Alkaline Trio Chords & Tabs

Version: 1 Type: Tab 0 ratings
1 star 2 stars 3 stars 4 stars 5 stars
comments

Snake Oil Tanker Tab

   
Alkaline Trio - Snake Oil Tanker
Tabbed By: Chris
EMail: pnutbutter311@netscape.net


Chords
  F#    D   E*     A   C#    E
|-------------------------------------------------------|
|-------------------------------------------------------|
|-------7----9---------6-------------------------------------|
|--4----7----9----7----6----2--------------------------------|
|--4----5----7----7----4----2--------------------------------|
|--2--------------5---------0--------------------------------|


Intro
|------------------------------------------------------------|
|------------------------------------------------------------|
|--------------------------------------------------------7---|
|-7-x-x-7-7-x-x-7-7-x-x-7-9-9----7-x-x-7-7-x-x-7-7-x-x-7-7---|
|-7-x-x-7-7-x-x-7-7-x-x-7-9-9----7-x-x-7-7-x-x-7-7-x-x-7-5---|
|-5-x-x-5-5-x-x-5-5-x-x-5-7-7----5-x-x-5-5-x-x-5-5-x-x-5-----|

F#               D                      F#           D     E*
this time you've dug yourself an anchor too heavy to move ahead with

F#                 D
resembling a faker charming snake oil tankers,

F#                    D
don't let them strike you down

A
i know that you wish i was dead,
[ Tab from: http://www.guitartabs.cc/tabs/a/alkaline_trio/snake_oil_tanker_tab.html ]
C#             F#           E
i know cuz you told me last weekend, 

A                                   C#        F#         E
and Christmas has never felt colder,      ive never felt colder 

A B A D

F#               D                      F#           D     E*
this time you've dug yourself an anchor too heavy to move ahead with

F#                 D
resembling a faker charming snake oil tankers,

F#                    D
don't let them strike you down

A
i know that you wish i was dead,

C#             F#           E
i know cuz you told me last weekend, 

A                                   C#      F#           E
and Christmas has never felt colder,      i haven't felt colder since

|------------------------------------------------------------|
|------------------------------------------------------------|
|----------------------------------------------7-6-4---------|
|-7-x-x-7-7-x-x-7-7-x-x-7-9-9----7-x-x-7-7-x-x-7-6-4-4-6-7---|
|-7-x-x-7-7-x-x-7-7-x-x-7-9-9----7-x-x-7-7-x-x-5-4-2-4-6-7---|
|-5-x-x-5-5-x-x-5-5-x-x-5-7-7----5-x-x-5-5-x-x-------2-4-5---|
Comments