Alkaline Trio - Smoke Chords & Tabs

 

Smoke Chords & Tabs

Alkaline Trio Chords & Tabs

Version: 1 Type: Tab 0 ratings
1 star 2 stars 3 stars 4 stars 5 stars
comments

Smoke Tab

ALKALINE TRIO
SMOKE
CRIMSON

This is off their new album due out 24th May, listen to the song for strumming patterns, 
sounds ok to me, but im not sure on the chorus.

INTRO (i) + (ii)
         (i)              (ii)      (i)
e|-12-10-7-8-7-5-7-3-|7h8h8h8h8h8|-0---------------|
B|-------------------|-----------|-----------------|
G|-------------------|-----------|-----------------|
D|-------------------|-----------|-----------------|
A|-------------------|-----------|-----------------|
E|-------------------|-----------|-----------------|

VERSE
e|-------------------------------------------------|
B|-------------------------------------------------|
G|--------7--------2------------2------------------|
D|---2---7-7--5---2-2--2---5---2-2--5--------------|
A|--2-2-5----5-5-0----2-2-5-5-0----5-5-------------|
E|-0--------3--------0---3--------3----------------|
[ Tab from: http://www.guitartabs.cc/tabs/a/alkaline_trio/smoke_tab.html ]
PRE CHORUS
e|-------------------------------------------------|
B|-------------------------------------------------|
G|----5-----7--------------------------------------|
D|-2--5--5--7--------------------------------------|
A|-2--3--5--5--------------------------------------|
E|-0-----3-----------------------------------------|

CHORUS
e|------------------------------------------------|
B|------------------------------------------------|
G|----5-----7-------------------------------------|
D|-2--5--5--7-------------------------------------|
A|-2--3--5--5-------------------------------------|
E|-0-----3----------------------------------------|

INTRO (i) + (iii)
INTRO (i) + (ii)

VERSE

PRE CHORUS

CHORUS

INTRO (i) + (iii)
INTRO (i) + (ii)

VERSE

INTRO (i) + (iii)

PRE CHORUS

CHORUS

INTRO (i) + ( iii)

For corrections email me at e_mericana@hotmail.com
Comments