Alkaline Trio - Sleepyhead Chords & Tabs

 

Sleepyhead Chords & Tabs

Alkaline Trio Chords & Tabs

Version: 2 Type: Tab 0 ratings
1 star 2 stars 3 stars 4 stars 5 stars
comments

Sleepyhead Tab

i couldn't find a tab for this awesome song anywhere so here it is.

Tabbed by: Mikey G
Email: Americana1987@hotmail.com
Tuning: Standard

Intro: once
e|---------------------------------------------------------------------------|
B|---------------------------------------------------------------------------|
G|-x66-x66-x66-x66-x66-x66-77777777------------------------------------------|
D|-x66-x66-x66-x66-x66-x66-55555555------------------------------------------|
A|-x44-x44-x44-x44-x44-x44-00000000------------------------------------------|
E|---------------------------------------------------------------------------|

Verse: 5 times ()last time
e|---------------------------------------------------------------------------|
B|---------------------------------------------------------------------------|
G|-66----66----66----77777777-(9)--------------------------------------------|
D|-66-77-66-77-66-77-55555555-(9)--------------------------------------------|
A|-44-77-44-77-44-77-00000000-(7)--------------------------------------------|
E|----55----55----55---------------------------------------------------------|

Chorus: once
"..smile"        "..eyes"   
e|---------------------------------------------------------------------------|
B|---------------------------------------------------------------------------|
G|-9999999999999999------------------99999999999998888-8/999999999999999-----|
D|-9999999999999999-9999999999999999-99999999999998888-8/999999999999999-----|
A|-7777777777777777-9999999999999999-77777777777776666-6/777777777777777-----|
E|------------------7777777777777777-----------------------------------------|

Verse: 5 times
Chorus: once

Bridge (clean): 6 times
e|---------------------------------------------------------------------------|
B|---------------------------------------------------------------------------|
G|-6666666677766666----------------------------------------------------------|
D|-6666666655566666-7777777777777777-----------------------------------------|
A|-4444444400044444-7777777777777777-----------------------------------------|
E|------------------5555555555555555-----------------------------------------|
[ Tab from: http://www.guitartabs.cc/tabs/a/alkaline_trio/sleepyhead_tab_ver_2.html ]
Bridge (distorted): twice
e|---------------------------------------------------------------------------|
B|---------------------------------------------------------------------------|
G|-6666666677766666-------------9999-----------------------------------------|
D|-6666666655566666-7777777777779999-----------------------------------------|
A|-4444444400044444-7777777777777777-----------------------------------------|
E|------------------555555555555---------------------------------------------|
             "it's rainin'.."
e|---------------------------------------------------------------------------|
B|---------------------------------------------------------------------------|
G|------------------99999999999999-------------------------------------------|
D|-444444444444-777-99999999999999-------------------------------------------|
A|-444444444444-777-77777777777777-------------------------------------------|
E|-222222222222-555----------------------------------------------------------|

Final Chorus: once
e|---------------------------------------------------------------------------|
B|---------------------------------------------------------------------------|
G|-9999999999999999------------------9999999999999999------------------------|
D|-9999999999999999-9999999999999999-9999999999999999-9999999999999999-------|
A|-7777777777777777-9999999999999999-7777777777777777-9999999999999999-------|
E|------------------7777777777777777------------------7777777777777777-------|

e|---------------------------------------------------------------------------|
B|---------------------------------------------------------------------------|
G|-99999999999998888-8/999999999999999---------------------------------------|
D|-99999999999998888-8/999999999999999-7*------------------------------------|
A|-77777777777776666-6/777777777777777-7*------------------------------------|
E|-------------------------------------5*------------------------------------|

that's it kids, you can get the lyrics here: 
http://plyrics.com/lyrics/alkalinetrio/sleepyhead.html

| /  slide up
| \  slide down
| *  let ring
| 
===============================================================================
Comments