Alkaline Trio - San Fransisco Chords & Tabs

 

San Fransisco Chords & Tabs

Alkaline Trio Chords & Tabs

Version: 1 Type: Tab 0 ratings
1 star 2 stars 3 stars 4 stars 5 stars
comments

San Fransisco Tab





    play twice with palm mute


e-------------------------------------------------------------
b-------------------------------------------------------------
g-4-4-4-4-4-4-4-4--5-5-5--6-6-6--7-7--7-----------------------
d-4-4-4-4-4-4-4-4--5-5-5--6-6-6--7-7--7--7-7-7-7-7-7-7-7--9---
a-2-2-2-2-2-2-2-2--3-3-3--4-4-4--5-5--5--7-7-7-7-7-7-7-7--9---
E----------------------------------------5-5-5-5-5-5-5-5--7---

               play twice without any mute-ing
[ Tab from: http://www.guitartabs.cc/tabs/a/alkaline_trio/san_fransisco_tab.html ]
e-------------------------------------------------------------
b-------------------------------------------------------------
g-4-4-4-4-4-4-4-4--5-5-5--6-6-6--7-7--7-----------------------
d-4-4-4-4-4-4-4-4--5-5-5--6-6-6--7-7--7--7-7-7-7-7-7-7-7--9---
a-2-2-2-2-2-2-2-2--3-3-3--4-4-4--5-5--5--7-7-7-7-7-7-7-7--9---
E----------------------------------------5-5-5-5-5-5-5-5--7---


there are other small parts to this song that i couldnt tab out
but thease are the only power chords you use in this whole song:


e---!----!----!-----!-----!----------------
b---!----!----!-----!-----!----------------
g-4-!--5-!--6-!--7--!-----!----------------
d-4-!--5-!--6-!--7--!---7-!--9-------------
a-2-!--3-!--4-!--5--!---7-!--9-------------
E---!----!----!-----!---5-!--7-------------

(they are usually played in that order!)

if u have any questions e-mail me at freakylizzard09@aol.com


Comments