Alkaline Trio - Radio Chords & Tabs

 

Radio Chords & Tabs

Alkaline Trio Chords & Tabs

Version: 7 Type: Tab 0 ratings
1 star 2 stars 3 stars 4 stars 5 stars
comments

Radio Tab

   
Submitted by: Patrick Chizzle in da Hizzle fa Shizzle my Nizzle

Intro

e----------------------------------------------------------------------
B----------------------------------------------------------------------
G--------11--------11--------9--------7--------9h11--------------------
D--0--0------0--0------0--0-----0--0-----0--0--------------------------
A----------------------------------------------------------------------
E----------------------------------------------------------------------

e----------------------------------------------------------------------
B----------------------------------------------------------------------
G--------11--------11--------------9-----------9-----------------------
D--9--9------9--9------9--0--7--7-----7-----7-----7--------------------
A----------------------------------------0-----------------------------
E----------------------------------------------------------------------

Verse

e----------------------------------------------------------------------
B----------------------------------------------------------------------
G--------11--------11--------9--------7--------9h11--------------------
D--0--0------0--0------0--0-----0--0-----0--0--------------------------
A----------------------------------------------------------------------
E----------------------------------------------------------------------

e----------------------------------------------------------------------
B----------------------------------------------------------------------
G--------11--------11--------9-----------------------------------------
D--9--9------9--9------9--0--7-----------------------------------------
A----------------------------0-----------------------------------------
E----------------------------------------------------------------------

e----------------------------------------------------------------------
B----------------------------------------------------------------------
G--7--7--7--7--7--7--7--7--9--9--9--9--7--7--7--7----------------------
D--7--7--7--7--7--7--7--7--7--7--7--7--7--7--7--7----------------------
A--5--5--5--5--5--5--5--5--5--5--5--5--5--5--5--5----------------------
E----------------------------------------------------------------------
[ Tab from: http://www.guitartabs.cc/tabs/a/alkaline_trio/radio_tab_ver_7.html ]
e----------------------------------------------------------------------
B----------------------------------------------------------------------
G----------------------------------------------------------------------
D--9--9--9--9--9--9--9--9--7--7--7--7--7--7--7--7----------------------
A--9--9--9--9--9--9--9--9--7--7--7--7--7--7--7--7----------------------
E--7--7--7--7--7--7--7--7--5--5--5--5--5--5--5--5----------------------

Transition

e----------------------------------------------------------------------
B----------------------------------------------------------------------
G----------------------------------------------------------------------
D--5--5--5--5--5--5--5--5--5--5--5--5--7~------------------------------
A--5--5--5--5--5--5--5--5--5--5--5--5--7~------------------------------
E--3--3--3--3--3--3--3--3--3--3--3--3--5~------------------------------

Chorus

e----------------------------------------------------------------------
B----------------------------------------------------------------------
G--7-----------------7-------------------------------------------------
D--7--(x8)--7--------7--(x8)--9--------7-------------------------------
A--5--------7--(x8)--5--------9--(x4)--7--(x4)-------------------------
E-----------5-----------------7--------5-------------------------------

(x2)

e----------------------------------------------------------------------
B----------------------------------------------------------------------
G----------------------------------------------------------------------
D--5--5--5--5--5--5--5--5--5--5--5--5--7~------------------------------
A--5--5--5--5--5--5--5--5--5--5--5--5--7~------------------------------
E--3--3--3--3--3--3--3--3--3--3--3--3--5~------------------------------

Outro
(e=11th fret, t=twelvth fret)
e----------------------------------------------------------------------
B----------------------------------------------------------------------
G--e--(x8)---t--(x4)--e--(x4)--t--(x4)--e--(x4)------------------------
D--0---------0--------0--------0--------0------------------------------
A----------------------------------------------------------------------
E----------------------------------------------------------------------
(x2)
e----------------------------------------------------------------------
B----------------------------------------------------------------------
G--7--(x12)--9~--------------------------------------------------------
D--0---------0~--------------------------------------------------------
A----------------------------------------------------------------------
E----------------------------------------------------------------------

Key:
h=hammer
~=ring
Comments