Alkaline Trio - Radio Chords & Tabs

 

Radio Chords & Tabs

Alkaline Trio Chords & Tabs

Version: 5 Type: Tab 0 ratings
1 star 2 stars 3 stars 4 stars 5 stars
comments

Radio Tab

Alkaline Trio,Radio.
 Tabbed by Joe Hall,wank_head@yahoo.com.
  
\"Radio\" - Alkaline Trio (Maybe I'll Catch Fire)
Tabbed by Jeff Massingill (Rev_horton_heat@hotmail.com), reformatted by Joe Hall (wank_head@yahoo.com)


[Intro] - play twice.

E -------------------------------------------------------------------------------------
B -------------------------------------------------------------------------------------
G --------11------11------9------7------9-11-------11-------11------------9------9-----
D ---0-0-----0-0-----0-0---0-0----0-0--------9-9------9-9------9-0--7-7---7---7--7-----  
A -------------------------------------------------------------------------------0-----
E -------------------------------------------------------------------------------------


E -------------------------------------------------------------------------------------
B -------------------------------------------------------------------------------------
G --------11------11------9------7------9-11-------11-------11---------9---------------
D ---0-0-----0-0-----0-0--- 0-0----0-0--------9-9------9-9------9-0--7-----------------
A ------------------------------------------------------------------------0------------
E -------------------------------------------------------------------------------------


[Verse Progression] - x3

E ----------------------------------------------------------------------------------------------------------
B --7--7--7--7--7--7--7--7----------------------------------------------------------------------------------
G --7--7--7--7--7--7--7--7---9--9--9--9---7--7--7--7--------------------------------------------------------
D --7--7--7--7--7--7--7--7---7--7--7--7---7--7--7--7---9--9--9--9--9--9--9--9---7--7--7--7--7--7--7--7------
A --5--5--5--5--5--5--5--5---5--5--5--5---5--5--5--5---9--9--9--9--9--9--9--9---7--7--7--7--7--7--7--7------
E -----------------------------------------------------7--7--7--7--7--7--7--7---5--5--5--5--5--5--5--5------


[Verse Progression the fourth time through] - x1

E ----------------------------------------------------------------------------------------------------------
B ----------------------------------------------------------------------------------------------------------
G ----------------------------------------------------------------------------------------------------------
D ----9--9--9--9--9--9--9--9---7--7--7--7--7--7--7--7--5--5--5--5--5--5--5--5--5--5--5--5--7----------------
A ----9--9--9--9--9--9--9--9---7--7--7--7--7--7--7--7--5--5--5--5--5--5--5--5--5--5--5--5--7----------------
E ----7--7--7--7--7--7--7--7---5--5--5--5--5--5--5--5--3--3--3--3--3--3--3--3--3--3--3--3--5----------------

\"if Columbus was wrong, I'd drive straight off the edge....\"


[Play Intro Again]


[Second Verse]


[Chorus]
[ Tab from: http://www.guitartabs.cc/tabs/a/alkaline_trio/radio_tab_ver_5.html ]
E ----------------------------------------------------------------------------------------------------------
B ----------------------------------------------------------------------------------------------------------
G --7--7--7--7--7--7--7--7--------------------------7--7--7--7--7--7--7--7----------------------------------
D --7--7--7--7--7--7--7--7--7--7--7--7--7--7--7--7--7--7--7--7--7--7--7--7---9--9--9--9--7--7--7--7---------
A --5--5--5--5--5--5--5--5--7--7--7--7--7--7--7--7--5--5--5--5--5--5--5--5---9--9--9--9--7--7--7--7---------
E --------------------------5--5--5--5--5--5--5--5---------------------------7--7--7--7--5--5--5--5---------


E----------------------------------------------------------------------------------------------------------------
B----------------------------------------------------------------------------------------------------------------
G--7--7--7--7--7--7--7--7-----------------------------7--7--7--7--7--7--7---------------------------------------- 
D--7--7--7--7--7--7--7--7--7--7--7--7--7--7--7--7--7--7--7--7--7--7--7--7---9--9--9--9--7--7--7--7--5--5--5--5---
A--5--5--5--5--5--5--5--5--7--7--7--7--7--7--7--7--5--5--5--5--5--5--5--5---9--9--9--9--7--7--7--7--5--5--5--5---
E-----------------------------5--5--5--5--5--5--5--5------------------------7--7--7--7--5--5--5--5--3--3--3--3---


E -----------------------------------------------------------------
B -----------------------------------------------------------------
G -----------------------------------------------------------------
D --5--5--5--5--5--5--5--5--5--5--5--5--5--5--5--5--5--5--5--5--7--
A --5--5--5--5--5--5--5--5--5--5--5--5--5--5--5--5--5--5--5--5--7--
E --3--3--3--3--3--3--3--3--3--3--3--3--3--3--3--3--3--3--3--3--5--


[Play Intro Again]


[First Verse Repeated]


[Chorus]


[Play Intro]

And thats about it, at the end there he does some variations of the intro 
picking part but nothing too hard.  I just don't wanna take the time to tab it.

Lyrics:
Shakin' like a dog shittin razor blades
wakin' up next to nothing
after dreaming of you and me i'm waking up all alone,
waking up so relieved
While you're takin' your time with apologies
i'm making my plans for revenge
red eyes on orange horizon,
if Columbus was wrong i'd drive straight off the edge.

Takin' your own life with bordom,
i'm taking my own life with wine.
it helps you to rule out the sorrow,
it helps me to empty my mind
making the most of a bad time,
i'm smoking the brains from my head
leaving the coal calling the kettle black, orange and red
this kettle is seeing red.

I've got a big fat fucking bone to pick with you my darling
in case you haven't heard im sick and tired of trying
i wish you would take my radio to bathe with you
plugged in and ready to fall. 
:: Ultimate Guitar Archive :: 
http://www.ultimate-guitar.com 



Comments