Alkaline Trio - Radio Chords & Tabs

 

Radio Chords & Tabs

Alkaline Trio Chords & Tabs

Version: 3 Type: Tab 0 ratings
1 star 2 stars 3 stars 4 stars 5 stars
comments

Radio Tab

ALKALINE TRIO

SONG: Radio

ALBUM: Maybe I'll Catch Fire


I have seen an incomplete version of this tab before which just had the intro
so I decided to figure out the full song and here it is!  I would just like to
point out that I did not figure out the complicated bit at the start that was 
lifted from another tab and no doubt worked out by someone far more talented 
than me, but now I give you Radio by the Alkaline Trio......

INTRO  
[ Tab from: http://www.guitartabs.cc/tabs/a/alkaline_trio/radio_tab_ver_3.html ]
part 1
e|--------------------------------------|   
B|--------------------------------------|    
G|-----11-----11-----9-----7-----9-11---|     |
D|-0-0----0-0----0-0---0-0---0-0--------|     |
A|--------------------------------------|     |
E|--------------------------------------|     |
                                              |
                                              |
e|--------------------------------------|     |
B|--------------------------------------|     | 
G|-----11-----11---------9-------9------|     |
D|-9-9----9-9----9-0-7-7---7---7---7----|     |
A|---------------------------0----------|     |
E|--------------------------------------|      
                                                   
                                                 | 
part 2                                          /  X2
e|--------------------------------------|      /
B|--------------------------------------|     | 
G|-----11-----11-----9-----7-----9-11---|     |  
D|-0-0----0-0----0-0---0-0---0-0--------|     |  
A|--------------------------------------|     | 
E|--------------------------------------|     | 
                                              |
                                              |
e|--------------------------------------|     |
B|--------------------------------------|     |
G|-----11-----11------9-----------------|     |
D|-9-9----9-9----9-0--7-----------------|     |
A|--------------------------------------|    / 
E|--------------------------------------|   /


VERSE  

e|---------------------------------------| 
B|---------------------------------------| 
G|--11---9--7------11---9----------------|   X4
D|--0----0--0------9----7----------------| 
A|-----------------0----0----------------| 
E|---------------------------------------|

then play 

e|------------| 
B|------------| 
G|---7--------|   
D|---7--------| 
A|---5--------| 
E|------------|


Play the INTRO (both parts) once then the VERSE once more before playing the following

CHORUS

"I've got..."
e|------------------------| 
B|------------------------| 
G|--7-----4---------------|   
D|--7--7--4--5------------| X2
A|--5--7--2--5------------| 
E|-----5-----3------------|

"I wish you..."
e|------------| 
B|------------| 
G|------------| X1
D|--7---------| 
A|--7---------| 
E|--5---------|


After this play:
INTRO X1
VERSE X1
CHORUS X1
INTRO pt.1 X2
then:

ENDING
e|---------------------------------------| 
B|---------------------------------------| 
G|---11-----12--11--12--11--9------7-----|   
D|---0------0---0---0---0---0------7-----| 
A|---------------------------------5-----| 
E|---------------------------------------|



ALKALINE TRIO ARE BETTER THAN RANCID SO FUCK YOU ANDREW!!!!!!!!!!!!
Comments