Alkaline Trio - Radio Chords & Tabs

 

Radio Chords & Tabs

Alkaline Trio Chords & Tabs

Version: 2 Type: Tab 0 ratings
1 star 2 stars 3 stars 4 stars 5 stars
comments

Radio Tab

   
BAND: Alkaline Trio
ALBUM: Maybe I'll Catch Fire
SONG: Radio
TABBER: el_STORM (justme2k@gmx.de)


Intro 2x:

E |----------------------------------------------------------------------|
B |----------------------------------------------------------------------|
G |-----11-----11-----9-----7-----9s11-----11-----11---------9-------9---|
D |-0-0----0-0----0-0---0-0---0-0------9-9----9-9----9-0-7-7---7---7---7-|
A |--------------------------------------------------------------0-------|
E |----------------------------------------------------------------------|

E |--------------------------------------------------------|
B |--------------------------------------------------------|
G |-----11-----11-----9-----7-----9s11-----11-----11-----7-|
D |-0-0----0-0----0-0---0-0---0-0------9-9----9-9----9-0-9-|
A |--------------------------------------------------------|
E |--------------------------------------------------------|

Verse 4x:
                               
E |-------------------------|-----------------|
B |-------------------------|-----------------|
G |-11-11-11-11-11-11-11-11-|-9-9-9-9-7-7-7-7-|
D |--0--0--0--0--0--0--0--0-|-0-0-0-0-0-0-0-0-|
A |-------------------------|-----------------|
E |-------------------------|-----------------|

E |-------------------------|-----------------|
E |-------------------------|-----------------|
E |-11-11-11-11-11-11-11-11-|-9-9-9-9-9-9-9-9-|
E |--9--9--9--9--9--9--9--9-|-7-7-7-7-7-7-7-7-|
E |-------------------------|-----------------|
E |-------------------------|-----------------|

Then after 4x add this:
                        
E |-------------------------|---|
B |-------------------------|---|
G |-7-7-7-7-7-7-7-7-7-7-7-7-|-9-|
D |-5-5-5-5-5-5-5-5-5-5-5-5-|-7-|
A |-------------------------|---|
E |-------------------------|---|

Now play all this again but the intro only once. then add this:
[ Tab from: http://www.guitartabs.cc/tabs/a/alkaline_trio/radio_tab_ver_2.html ]
           D                  A                 D           B         A
E |-----------------|-----------------|-----------------|-----------------|
B |-----------------|-----------------|-----------------|-----------------|
G |-----------------|-----------------|-----------------|-----------------|
D |-7-7-7-7-7-7-7-7-|-----------------|-7-7-7-7-7-7-7-7-|-----------------|
A |-5-5-5-5-5-5-5-5-|-7-7-7-7-7-7-7-7-|-5-5-5-5-5-5-5-5-|-9-9-9-x-7-7-7-7-|
E |-----------------|-5-5-5-5-5-5-5-5-|-----------------|-7-7-7-x-5-5-5-5-|

           D                  A                 D           B         A
E |-----------------|-----------------|-----------------|-----------------|
B |-----------------|-----------------|-----------------|-----------------|
G |-----------------|-----------------|-----------------|-----------------|
D |-7-7-7-7-7-7-7-7-|-----------------|-7-7-7-7-7-7-7-7-|-----------------|
A |-5-5-5-5-5-5-5-5-|-7-7-7-7-7-7-7-7-|-5-5-5-5-5-5-5-5-|-9-9-9-x-7-7-7-7-|
E |-----------------|-5-5-5-5-5-5-5-5-|-----------------|-7-7-7-x-5-5-5-5-|

           G                  G                 G         A
E |-----------------|-----------------|-----------------|---|
B |-----------------|-----------------|-----------------|---|
G |-----------------|-----------------|-----------------|---|
D |-----------------|-----------------|-----------------|---|
A |-5-5-5-5-5-5-5-5-|-5-5-5-5-5-5-5-5-|-5-5-5-5-5-5-5-5-|-7-|
E |-3-3-3-3-3-3-3-3-|-3-3-3-3-3-3-3-3-|-3-3-3-3-3-3-3-3-|-5-|

Now play the whole thing 1 more time(intro only once)
Then play the first part of the intro 2x and add this:

E |-------------------------|-------------------------|-------------------------|
B |-------------------------|-------------------------|-------------------------|
G |-11-11-11-11-11-11-11-11-|-12-12-12-12-11-11-11-11-|-12-12-12-12-11-11-11-11-|
D |--0--0--0--0--0--0--0--0-|--0--0--0--0--0--0--0--0-|--0--0--0--0--0--0--0--0-|
A |-------------------------|-------------------------|-------------------------|
E |-------------------------|-------------------------|-------------------------|

E |-----------------|
B |-----------------|
G |-9-9-9-9-9-9-9-9-|
D |-7-7-7-7-7-7-7-7-|
A |-----------------|
E |-----------------|

Now play that again but add this at the end:

E |-----------------|-----------|
B |-----------------|-----------|
G |-7-7-7-7-7-7-7-7-|-7-7-7-7-9-|
D |-5-5-5-5-5-5-5-5-|-5-5-5-5-7-|
A |-----------------|-----------|
E |-----------------|-----------|

This tab is 100% correct. Enjoy!
Alkaline Trio = Best Band Ever!
Comments