Alkaline Trio - Queen Of Pain Chords & Tabs

 

Queen Of Pain Chords & Tabs

Alkaline Trio Chords & Tabs

Version: 1 Type: Tab 0 ratings
1 star 2 stars 3 stars 4 stars 5 stars
comments

Queen Of Pain Tab

-------------------------------------------------------------------------------
                           QUEEN OF PAIN - Alkaline Trio
-------------------------------------------------------------------------------

By Alan Good (kentucky_fried_children_@hotmail.com)

this is a bitchin new Trio song on the Alkaline trio/Hot Water Music 
split EP. there is actually 2 guitars in the song but ive done the 
tab for one, the other guitar is just doing rhythm anyway

Standard Tuning (EADGBE)


INTRO
[ Tab from: http://www.guitartabs.cc/tabs/a/alkaline_trio/queen_of_pain_tab.html ]
e|------------------------------------------------------------------|
B|------------------------------------------------------------------|
G|---------6-6-6-6-4-4-4-4-3-3-3-3----------6-6-6-6-4-4-4-4-3-3-3-3-|
D|------------------------------------------------------------------|
A|-6-6-6-6-------------------------2-2-2-2--------------------------|
E|------------------------------------------------------------------|

e|------------------------------------------------------------------|
B|------------------------------------------------------------------|
G|---------6-6-6-6-4-4-4-4-3-3-3-3-4444444--------------------------|
D|---------------------------------4444444--------------------------|
A|-6-6-6-6-------------------------2222222--------------------------|
E|------------------------------------------------------------------|





VERSE

e|------------------------------------------------|
B|------------------------------------------------|
G|-4----------------------------------------------|
D|-4----------------------------------------------|     >>>-4->>-6--6--4--4-
Comments