Alkaline Trio - Private Eye Chords & Tabs

 

Private Eye Chords & Tabs

Alkaline Trio Chords & Tabs

Version: 8 Type: Tab 0 ratings
1 star 2 stars 3 stars 4 stars 5 stars
comments

Private Eye Tab

   
SONG : PRIVATE EYE
BAND : ALKALINE TRIO
TABBED BY : CLIVE COATS
E-MAIL : ccoats_88@hotmail.com
TUNING : STANDARD
I AM ALMOST POSITIVE THAT THESE ARE RIGHT, ALTHOUGH I AM NOT TOO SURE ABOUT THE BEGGINING,
WHEN I THINK HE PLAYS THE CHORDS, AND THE BIT ABOVE IT AS WELL. HE ALSO MAY DO THIS DOUBLE
THE SPEED. THIS IS MY BEST SHOT AT IT AND I HOPE YOU FIND IT USEFUL

.=PALM MUTE

INTRO

E--------------------------------------------
B--------------------------------------------
G--------------------------------------------
D--9--9--9-9--9--9--9--9-9-9-9-9-10-10-10-10- PLAY 3 TIMES
A-10-10-10-9-12-12-10-10-9-9-9-9-10-10-10-10-
E--0--0--0-0--0--0--0--0-7-7-7-7--8--8--8--8-

ON THE 4TH TIME, PLAY THIS

E-------------------------------------------------
B-------------------------------------------------
G-------------------------------------------------
D--9--9--9-9--9--9--9--9-9-9-9-9-10-10-10---9-9-9-
A-10-10-10-9-12-12-10-10-9-9-9-9-10-10-10---9-9-9-
E--0--0--0-0--0--0--0--0-7-7-7-7--8--8--8---7-7-7-

VERSE
[ Tab from: http://www.guitartabs.cc/tabs/a/alkaline_trio/private_eye_tab_ver_8.html ]
E-------------------------------------
B-------------------------------------
G-------------------------------------
D-2-2-2-2-2-2-2-2-9-9-9-9-10-10-10-10-
A-2-2-2-2-2-2-2-2-9-9-9-9-10-10-10-10-
E-0-0-0-0-0-0-0-0-7-7-7-7--8--8--8--8-
  . . . . . . . . . . . .  .  .  .  .  
   
GO BACK AND PLAY THE FIRST PART OF THE INTRO TWO TIMES THEN SECOND VERSE
ON THE SECOND VERSE, AT THE PART WHERE HE SAYS "THERE'S NO RING......" PLAY THIS

E---------------------------------------------
B---------------------------------------------
G---9-9---9-9---9-9---9-9---------------------
D---9-9---9-9---9-9---9-9-9-9-9-9-10-10-10-10-
A---7-7---7-7---7-7---7-7-9-9-9-9-10-10-10-10-
E---------------------7-7-7-7--9--9--9--9-----

CHORUS

E-------------------------------------
B-------------------------------------
G-------------------------------------
D-5-5-5-5-5-5-5-5-9-9-9-9-12-12-12-12-
A-5-5-5-5-5-5-5-5-9-9-9-9-12-12-12-12-   PLAY THIS THROUGHOUT THE CHORUS
D-3-3-3-3-3-3-3-3-7-7-7-7-10-10-10-10-

THEN GO BACK TO THE FIRST VERSE, THEN THE CHORUS TWICE.

ANY COMPLAINTS OR CORRECTIONS, E-MAIL THEM TO ME AT ccoats_88@hotmail.com
Comments