Alkaline Trio - Private Eye Chords & Tabs

 

Private Eye Chords & Tabs

Alkaline Trio Chords & Tabs

Version: 5 Type: Tab 0 ratings
1 star 2 stars 3 stars 4 stars 5 stars
comments

Private Eye Tab

   
Chords Used:
G   B   D  Eiio  Fiio  Giio
-------------------------------------------------
-------------------------------------------------
-----4---7--11----12----14-----------------------
-5---4---7--x-----x-----x------------------------
-5---2---5--9-----10----12-----------------------
-3-----------------------------------------------


Intro/Verse: (when playing verse just p.m.)
[ Tab from: http://www.guitartabs.cc/tabs/a/alkaline_trio/private_eye_tab_ver_5.html ]
----------------------------------------------|
----------------------------------------------|
-12-12-12-12-12-12-11-11--14-14-14-14--12-12--|
-x--x--x--x--x--x--x--x---x--x--x--x---x--x---|
-10-10-10-10-10-10-9--9---12-12-12-12--10-10--|
----------------------------------------------|

-----------------------------|
-----------------------------|
-4-4-4-4-4-4-4-4----6-6-6-6--|
-4-4-4-4-4-4-4-4----6-6-6-6--|
-2-2-2-2-2-2-2-2----4-4-4-4--|
-----------------------------|

Chorus
----------------------------------------------|
----------4--------7--------------------------|
----------4--------7--------------------------| 4x
-5--------2--------5--------------------------|
-5--------------------------------------------|
-3--------------------------------------------|


Songflow:
Intro 4x
Verse 4x
Intro 2x
Verse 4x
Chorus
Verse 4x
Chorus
Intro 4x
Chorus
End on G

tabbed by: the guitar player from twenty pence refund go to 20prefund.5u.com 

Comments