Alkaline Trio - Private Eye Chords & Tabs

 

Private Eye Chords & Tabs

Alkaline Trio Chords & Tabs

Version: 1 Type: Tab 0 ratings
1 star 2 stars 3 stars 4 stars 5 stars
comments

Private Eye Tab

Song: Private Eye
Artist: Alkaline Trio
Tabbed By: Russell Ledger

Intro
e--------------------------------------------
b--------------------------------------------
g--------------------------------------------
d--------------------------------------------
a----10-10-10-10-10----7---10-10-10--9-9-9---
e--------------------------------------------
[ Tab from: http://www.guitartabs.cc/tabs/a/alkaline_trio/private_eye_tab.html ]
e---------------------------------------------------
b---------------------------------------------------
g---------------------------------------------------
d----9-9-9-9-9-9-9-9------10-10-10-10-10-10-10-10---
a----9-9-9-9-9-9-9-9------10-10-10-10-10-10-10-10---
e----7-7-7-7-7-7-7-7------8--8--8--8--8--8--8--8----

The verse is just the same as this but palm muted. I havent figured out the
chords yet but i'll stick em on here when i figure em out. 
Send any corrections to maladramatic_fool@hotmail.com 
Comments