Alkaline Trio - Nose Over Tail Chords & Tabs

 

Nose Over Tail Chords & Tabs

Alkaline Trio Chords & Tabs

Version: 2 Type: Bass Tab 0 ratings
1 star 2 stars 3 stars 4 stars 5 stars
comments

Nose Over Tail Bass Tab

   
Song:nose over tail
album:S/T
band:alkaline trio
tuning: standard

ok this is the 100% correct tab for nose over tail. keep in mind that this tab is
specifically fo their s/t album but it can be pretty fun playing it over the version
on Goddammit. 

intro/verse 1
E|----------------------------------------------|
A|-2-222---024-------------2-222---024----------|x2
D|-------4------4-2-1-2-22-------4-----44-6-666-|
G|----------------------------------------------|

intro pt.2
E|-------------------------------------0~|
A|-2-222---024-------------2-222---024---|
D|-------4------4-2-1-2-22-------4-------|
G|---------------------------------------|

pre-chours
E|-----------------------------55-55-55-5-555-----------------------------|
A|-44-444-444-44------------------------------44-444-444-44---------------|
D|---------------66-666-444-44------------------------------66-666-44-444-|
G|------------------------------------------------------------------------|

E|---------|
A|-00-00-2~|
D|---------|
G|---------|

chours
E|-0-00----------------------------------0-00--------------------|
A|---------2-2222-222-444-222-0----------------------------------|
D|------21----------------------2--47646------224-6--------------|
G|-------------------------------2------------------4-44-4444-44-|

E|------------------|
A|-444-222-0-00-----|
D|--------------4-6-|
G|------------------|

pre-verse
E|-----------------------|
A|-2222-2222-22----------|x2
D|--------------2-1-2-44-|
G|-----------------------|
[ Tab from: http://www.guitartabs.cc/tabs/a/alkaline_trio/nose_over_tail_btab_ver_2.html ]
verse 2
E|--------------------------------------------0-|                          |
A|-22-222-----20-00-000---------22-222-----20---|i'd love to rub your back!|
D|--------444-----------6h7-6-4--------444------|                          |
G| ---------------------------------------------|                          |

E|--------------------------------------------00-000-000-00-|
A|-22-222-----20-00-000---------22-222-----20---------------|
D|--------444-----------6h7-6-4--------444------------------|
G| ---------------------------------------------------------|

pre-chours x1

break
E|-0~-------0~--------00000--0-00000--------00000-0-00000---------|
A|---76-66-6---76-64-4---------------76-66-6--------------76-64-4-|
D|----------------------------------------------------------------|
G|----------------------------------------------------------------|

E|-55-55-5-22-22-2-|
A|-----------------|x2
D|---7--7-7--4--4-4|
G|-----------------|

Chorus 2
E|-0-00----------------------------------0-00--------------------|
A|---------2-2222-222-444-222-0----------------------------------|
D|------21----------------------2--47646------224-6--------------|
G|-------------------------------2------------------4-44-4444-44-|

E|--------------------0-00----------------------------------|
A|-444-222-0------------------2-2222-222-444-222-0----------|
D|-----------2--47646------21----------------------2--47646-|
G|------------2-------------------------------------2-------|

end chours
E|-0-00-------------4-----------------42-0~0-|
A|---------2-22-2420--444-222-0-000-20-------|
D|------21-----------------------------------|
G|-------------------------------------------|

thats it. im pretty sure that this was the first alk3 song written. it also has to be
one if not my most favorite song by them. the bassline is great.
                                              -i'm nose over tail for you...
Comments