Alkaline Trio - Mr Chainsaw Chords & Tabs

 

Mr Chainsaw Chords & Tabs

Alkaline Trio Chords & Tabs

Version: 5 Type: Tab 0 ratings
1 star 2 stars 3 stars 4 stars 5 stars
comments

Mr Chainsaw Tab

ALKALINE TRIO
MR CHAINSAW
FROM HERE TO INFIRMARY

Intro/verse Part 1
e|--------------------------------------------------------|
B|--------------------------------------------------------|
G|--------------------------------------------------------|
D|-11-11-11-11-11-11-12-12-12-11-11-7-7-7-7-7-7-7-7-7-7---|
A|--0--0--0--0--0--0--0--0--0--0--0-5-5-5-5-4-5-5-5-5-5---|
E|--------------------------------------------------------|
[ Tab from: http://www.guitartabs.cc/tabs/a/alkaline_trio/mr_chainsaw_tab_ver_5.html ]
Intro/Verse Part 2
e|----------------------------------------------------------------------|
B|----------------------------------------------------------------------|
G|-11-11-11-11-11-11-11-11-9-9-9-9-9-9--7-7-7-7-7-7-7-7-7-7-7-7-9-9-9-9-|
D|-11-11-11-11-11-11-11-11-9-9-9-9-9-9--7-7-7-7-7-7-7-7-7-7-7-7-9-9-9-9-|
A|-9--9--9--9--9--9--9--9--7-7-7-7-7-7--4-5-5-5-4-5-5-5-4-5-5-5-7-7-7-7-|
E|--------------------------------------------------------------0-0-0-0-|

Chorus
e|------------------------------------------------|
B|------------------------------------------------|
G|------------------------------------------------|
D|-2----------------------7-7-7-7-7-7-9-9-9-9-9-9-|
A|-0------2------4--------5-5-5-5-5-5-7-7-7-7-7-7-|
E|--------0------2--------------------------------|

Intro/verse 1 + Intro/verse 2

Chorus

Intro/verse 1

Outro
e|------------------------------------------------|
B|------------------------------------------------|
G|-9-9-9-9-9-9-9-9-9------------------------------|
D|-7-7-7-7-7-7-7-7-7--7-7-7-7-7-7-9-9-9-9-9-9-----|
A|-0-0-0-0-0-0-0-0-0--5-5-5-5-5-5-7-7-7-7-7-7-----|
E|--------------------------------0-0-0-0-0-0-----|

for corrections email me at e_mericana@hotmail.com
Comments