Alkaline Trio - Mercy Me Chords & Tabs

 

Mercy Me Chords & Tabs

Alkaline Trio Chords & Tabs

Version: 2 Type: Bass Tab

Mercy Me Bass Tab

Band: Alkaline Trio
Song: Mercy Me
Tabbed By: Nate Boyce - Bassist Nowhere to Park 
e-mail: nwboyce@syr.edu

Ok I love this song from the trio but the other tab is completely off. So I figure if
you want something done right, you do it yourself. This tab is 100% perfect, I assure
you that.

Standard eadg

Intro:

G|---------------------------------------------------------------------------|
D|---------------------------------------------------------------------------|
A|--0000000000000000----------55555555---------------------------------------|
E|-------------------22222222------------------------------------------------|

G|---------------------------------------------------------------------------|
D|---------------------------------------------------------------------------|
A|--0000000000000000----------55555555---------------------------------------|
E|-------------------22222222------------------------------------------------|

Verse:

G|---------------------------------------------------------------------------|
D|---------------------------------------------------------------------------|
A|--0000000000000000-----------55555555--------------------------------------|
E|-------------------2222-0000-----------------------------------------------|

G|---------------------------------------------------------------------------|
D|-------------------4444-2222-00000000--------------------------------------|
A|--0000000000000000---------------------------------------------------------|
E|---------------------------------------------------------------------------|

G|---------------------------------------------------------------------------|
D|---------------------------------------------------------------------------|
A|--0000000000000000-----------55555555--------------------------------------|
E|-------------------2222-0000-----------------------------------------------|

G|---------------------------------------------------------------------------|
D|-------------------4444-2222-0000-2222-------------------------------------|
A|--0000000000000000---------------------------------------------------------|
E|---------------------------------------------------------------------------|

  Intro
  Half Verse (only second half of it)

Pre chorus:
[ Tab from: http://www.guitartabs.cc/tabs/a/alkaline_trio/mercy_me_btab_ver_2.html ]
G|---------------------------------------------------------------------------|
D|-----------------------------22222222--------------------------------------|
A|-----------55555555-00000000-----------------------------------------------|
E|--22222222-----------------------------------------------------------------|

G|---------------------------------------------------------------------------|
D|---------------------------------------------------------------------------|
A|---------------------------------------------------------------------------|
E|--22222222-5555-44-22-00000000-22222222------------------------------------|

Chorus:

G|---------------------------------------------------------------------------|
D|--4444-2222-00000000-4444-2222-00----------4444-2222-0000-2222-------------|
A|----------------------------------44-22-00---------------------------------|
E|---------------------------------------------------------------------------|

G|---------------------------------------------------------------------------|
D|---------------4444--------------------------------------------------------|
A|--000000000000------00000000-5555-44-22------------------------------------|
E|---------------------------------------------------------------------------|

  Verse
  Pre Chorus
  Chorus

Bridge:

G|---------------------------------------------------------------------------|
D|---------------------------------------------------------------------------|
A|--0000----------------5555-4444-2222-4444-0000-----------------------------|
E|-------4444-2222-0000--------------------------4444-2222-0000--------------|

G|---------------------------------------------------------------------------|
D|---------------------------------------------------------------------------|
A|--5555-4444-22222222-------------------------------------------------------|
E|---------------------------------------------------------------------------|

Outro:

G|---------------------------------------------------------------------------|
D|--4444-2222-00000000-4444-2222-00----------4444-2222-0000-2222-------------|
A|----------------------------------44-22-00---------------------------------|
E|---------------------------------------------------------------------------|

G|---------------------------------------------------------------------------|
D|---------------2222--------------2222--------------------------------------|
A|--000000000000------000000000000------00000000-5555-44-22-0~---------------|
E|---------------------------------------------------------------------------|


Rate it.
===============================================================================