Alkaline Trio - Jaked On Green Beers Chords & Tabs

 

Jaked On Green Beers Chords & Tabs

Alkaline Trio Chords & Tabs

Version: 2 Type: Tab 0 ratings
1 star 2 stars 3 stars 4 stars 5 stars
comments

Jaked On Green Beers Tab

ALKALINE TRIO
JAKED ON GREEN BEERS
tabbed by e_mericana@hotmail.com


listen to cd for strumming paterns

"Intro" 
e|--------------------------------------------------------------------| 
B|--------------------------------------------------------------------| 
G|-------------11---8-------11---------8------------------------------| 
D|-FEEDBACK----11---8---9---11---------8---9----PICKSCRATCH-----------| 
A|--------------9---6---9----9---------6---9--------------------------| 
E|----------------------7--------7/9-------7--------------------------| 
^ ^ ^ ^ ^ 

"1st Verse" 
It's been a long time since I been close to you 
It's been a long time since I been sad 
It's been a while since I really spent time with you 
Wish I could take back the times that I had 
The only thing that you ever really did for me 
Was make me oh so miserable 
And the hope that I never see your face again 
Is anything but questionable 
e|--------------------------------------------------------------------| 
B|--------------------------------------------------------------------| 
G|--111111111111---------------------111111111111--88888--------------| 
D|--111111111111--99999--1111111111--111111111111--88888--99999-------| 
A|---9-9-9-9-9-9--99999--1111111111---9-9-9-9-9-9--66666--99999-------| 
E|----------------77777---9-9-9-9-9-----------------------77777-------| 

e|--------------------------------------------------------------------| 
B|--------------------------------------------------------------------| 
G|--111111111111---------------------111111111111--88888--------------| 
D|--111111111111--99999--1111111111--111111111111--88888--99999-------| 
A|---9-9-9-9-9-9--99999--1111111111---9-9-9-9-9-9--66666--99999-------| 
E|----------------77777---9-9-9-9-9-----------------------77777-------| 

"1st Chorus" 
I hope this is goodbye 
I hope this is goodbye 
e|--------------------------------------------------------------------| 
B|--------------------------------------------------------------------| 
G|----------------10/11111111-----------------------------------------| 
D|--444444444444---x/-x-x-x-x--111111111111--999999-------------------| 
A|--444444444444---8/-9-9-9-9--111111111111--999999-------------------| 
E|--222222222222----------------9-9-9-9-9-9--777777-------------------| 

"2nd Verse" 
There was a time when I thought you were a friend of me 
I think those times I was probably just drunk 
If they offered a test about being a good friend I'd put money down that 
you'd surely flunk 
The only think that you ever really took from me 
Were my records to sell them for dope 
Now all I have left is this heart in my chest 
And my happiness seldom can cope 
e|--------------------------------------------------------------------| 
B|--------------------------------------------------------------------| 
G|--111111111111---------------------111111111111--88888--------------| 
D|--111111111111--99999--1111111111--111111111111--88888--99999-------| 
A|---9-9-9-9-9-9--99999--1111111111---9-9-9-9-9-9--66666--99999-------| 
E|----------------77777---9-9-9-9-9-----------------------77777-------| 

(GUITAR 1) 
e|--------------------------------------------------------------------| 
B|--------------------------------------------------------------------| 
G|--10/111111111111---------------------111111111111--88888-----------| 
D|---x/-x-x-x-x-x-x--99999--1111111111--111111111111--88888--99999----| 
A|---8/-9-9-9-9-9-9--99999--1111111111---9-9-9-9-9-9--66666--99999----| 
E|-------------------77777---9-9-9-9-9-----------------------77777----| 

(GUITAR 2) 
e|--------------------------------------------------------------------| 
B|--------------------------------------------------------------------| 
G|--10/111111111111-10/111111111111-10/111111111111-10/111111111111---| 
D|---x/-x-x-x-x-x-x--x/-x-x-x-x-x-x--x/-x-x-x-x-x-x--x/-x-x-x-x-x-x---| 
A|---8/-9-9-9-9-9-9--8/-9-9-9-9-9-9--8/-9-9-9-9-9-9--8/-9-9-9-9-9-9---| 
E|--------------------------------------------------------------------| 

"2nd Chorus" 
I hope this is goodbye 
I hope this is goodbye 
I hope this is goodbye 
I hope this is goodbye 
(GUITAR 1) 
e|--------------------------------------------------------------------| 
B|--------------------------------------------------------------------| 
G|--------------------------------------------------------------------| 
D|---------4---------4------------8------------9----------------------| 
A|---------------------4---6-6-6----6------------7--------------------| 
E|--2-2-2-----2-2-2---------------------7-7-7-------------------------| 
* * * * * * * * * * * * 

(GUITAR 2) 
e|--------------------------------------------------------------------| 
B|--------------------------------------------------------------------| 
G|--------------------------------------------------------------------| 
D|--------------------------------------------------------------------| 
A|-------------------------6666666666---------------------------------| 
E|--22222222222222222222----------------77777777777-------------------| 
******************** ********** *********** 

(GUITAR 1) 
e|--------------------------------------------------------------------| 
B|--------------------------------------------------------------------| 
G|--------------------------------------------------------------------| 
D|---------4---------4------------8------------9----------------------| 
A|---------------------4---6-6-6----6------------7--------------------| 
E|--2-2-2-----2-2-2---------------------7-7-7-------------------------| 
* * * * * * * * * * * * 

(GUITAR 2) 
e|--------------------------------------------------------------------| 
B|--------------------------------------------------------------------| 
G|--------------------------------------------------------------------| 
D|--------------------------------------------------------------------| 
A|-------------------------6666666666---------------------------------| 
E|--22222222222222222222----------------77777777777-------------------| 
******************** ********** *********** 

"Pre-Verse" 
e|--------------------------------------------------------------------| 
B|--------------------------------------------------------------------| 
G|--111111111111---------------------111111111111--88888--------------| 
D|--111111111111--99999--1111111111--111111111111--88888--99999-------| 
A|---9-9-9-9-9-9--99999--1111111111---9-9-9-9-9-9--66666--99999-------| 
E|----------------77777---9-9-9-9-9-----------------------77777-------| 
[ Tab from: http://www.guitartabs.cc/tabs/a/alkaline_trio/jaked_on_green_beers_tab_ver_2.html ]
"3rd Verse" 
It's been a long time since I been close to you 
It's been a long time since I been sad 
It's been a while since I really spent time with you 
Wish I could take back the times that I had 
The only thing that you ever really did for me 
Was make me oh so miserable 
And the hope that I never see your face again 
Is anything but questionable 
There was a time when I thought you were a friend of me 
I think those times I was probably just drunk 
If they offered a test about being a good friend I'd put money down that 
you'd surely flunk 
The only thing that you ever really took from me 
Were my records then hocked them for dope 
Now all I have left is this heart in my chest 
Your dishonesty helping me cope 
e|--------------------------------------------------------------------| 
B|--------------------------------------------------------------------| 
G|--11----10/11----10/11----10/11----10/11----10/11-------------------| 
D|--11----10/11----10/11----10/11----10/11----10/11---PICKSCRATCH-----| 
A|---9-----8/-9-----8/-9-----8/-9-----8/-9-----8/-9-------------------| 
E|--------------------------------------------------------------------| 
^ ^ ^ ^ ^ ^ 

e|--------------------------------------------------------------------| 
B|--------------------------------------------------------------------| 
G|--111111111111---------------------111111111111--88888--------------| 
D|--111111111111--99999--1111111111--111111111111--88888--99999-------| 
A|---9-9-9-9-9-9--99999--1111111111---9-9-9-9-9-9--66666--99999-------| 
E|----------------77777---9-9-9-9-9-----------------------77777-------| 

(GUITAR 1) 
e|--------------------------------------------------------------------| 
B|--------------------------------------------------------------------| 
G|--111111111111---------------------111111111111--88888--------------| 
D|--111111111111--99999--1111111111--111111111111--88888--99999-------| 
A|---9-9-9-9-9-9--99999--1111111111---9-9-9-9-9-9--66666--99999-------| 
E|----------------77777---9-9-9-9-9-----------------------77777-------| 

(GUITAR 2) 
e|--------------------------------------------------------------------| 
B|--------------------------------------------------------------------| 
G|--10/111111111111-10/111111111111-10/111111111111-10/111111111111---| 
D|---x/-x-x-x-x-x-x--x/-x-x-x-x-x-x--x/-x-x-x-x-x-x--x/-x-x-x-x-x-x---| 
A|---8/-9-9-9-9-9-9--8/-9-9-9-9-9-9--8/-9-9-9-9-9-9--8/-9-9-9-9-9-9---| 
E|--------------------------------------------------------------------| 

"3rd Chorus" 
I hope this is goodbye 
I hope this is goodbye 
I hope this is goodbye 
I hope this is goodbye 
I hope this is goodbye 
I hope this is goodbye 
I hope this is goodbye 
I hope this is goodbye 
I hope this is goodbye 
I hope this is goodbye 
I hope this is goodbye 
I hope this is goodbye 
e|--------------------------------------------------------------------| 
B|--------------------------------------------------------------------| 
G|-------8----4---------8----4----------------------------------------| 
D|--4----8----4----4----8----4----------------------------------------| 
A|--4----6----2----4----6----2----------------------------------------| 
E|--2--------------2--------------------------------------------------| 
^ ^ ^ ^ ^ ^ 

e|--------------------------------------------------------------------| 
B|--------------------------------------------------------------------| 
G|--------------------------888888888888---444444444444---------------| 
D|--444444444444444444444---888888888888---444444444444---------------| 
A|--444444444444444444444---666666666666---222222222222---------------| 
E|--222222222222222222222---------------------------------------------| 

e|--------------------------------------------------------------------| 
B|--------------------------------------------------------------------| 
G|--------------------------888888888888---444444444444---------------| 
D|--444444444444444444444---888888888888---444444444444---------------| 
A|--444444444444444444444---666666666666---222222222222---------------| 
E|--222222222222222222222---------------------------------------------| 

e|--------------------------------------------------------------------| 
B|--------------------------------------------------------------------| 
G|--------------------------888888888888---444444444444---------------| 
D|--444444444444444444444---888888888888---444444444444---------------| 
A|--444444444444444444444---666666666666---222222222222---------------| 
E|--222222222222222222222---------------------------------------------| 

e|--------------------------------------------------------------------| 
B|--------------------------------------------------------------------| 
G|--------------------------888888888888---444444444444---------------| 
D|--444444444444444444444---888888888888---444444444444---------------| 
A|--444444444444444444444---666666666666---222222222222---------------| 
E|--222222222222222222222---------------------------------------------| 

"Bridge" 
e|--------------------------------------------------------------------| 
B|--------------------------------------------------------------------| 
G|--1111111111/1010/13131313/11111111--1111111111/10/13/11/10/111111--| 
D|---x-x-x-x-x/-x-x/-x-x-x-x/-x-x-x-x---x-x-x-x-x/-x/-x/-x/-x/-x-x-x--| 
A|---9-9-9-9-9/-8-8/11111111/-9-9-9-9---9-9-9-9-9/-8/11/-9/-8/-9-9-9--| 
E|--------------------------------------------------------------------| 

e|--------------------------------------------------------------------| 
B|--------------------------------------------------------------------| 
G|--1111111111/1010/13131313/11111111--1111111111/10/13/11/10/111111--| 
D|---x-x-x-x-x/-x-x/-x-x-x-x/-x-x-x-x---x-x-x-x-x/-x/-x/-x/-x/-x-x-x--| 
A|---9-9-9-9-9/-8-8/11111111/-9-9-9-9---9-9-9-9-9/-8/11/-9/-8/-9-9-9--| 
E|--------------------------------------------------------------------| 

"4th Chorus" 
I hope this is goodbye 
I hope this is goodbye 
I hope this is goodbye 
I hope this is goodbye 
(GUITAR 1) 
e|--------------------------------------------------------------------| 
B|--------------------------------------------------------------------| 
G|--------------------------888888888888---444444444444---------------| 
D|--444444444444444444444---888888888888---444444444444---------------| 
A|--444444444444444444444---666666666666---222222222222---------------| 
E|--222222222222222222222---------------------------------------------| 

(GUITAR 2) 
e|--------------------------------------------------------------------| 
B|--------------------------------------------------------------------| 
G|--1111111111/1010/13131313/11111111--1111111111/10/13/11/10/111111--| 
D|---x-x-x-x-x/-x-x/-x-x-x-x/-x-x-x-x---x-x-x-x-x/-x/-x/-x/-x/-x-x-x--| 
A|---9-9-9-9-9/-8-8/11111111/-9-9-9-9---9-9-9-9-9/-8/11/-9/-8/-9-9-9--| 
E|--------------------------------------------------------------------| 

(GUITAR 1) 
e|--------------------------------------------------------------------| 
B|--------------------------------------------------------------------| 
G|--------------------------888888888888---444444444444---------------| 
D|--444444444444444444444---888888888888---444444444444-----------4-4-| 
A|--444444444444444444444---666666666666---222222222222-----------4-4-| 
E|--222222222222222222222-----------------------------------------2-2-| 
^ 

(GUITAR 2) 
e|--------------------------------------------------------------------| 
B|--------------------------------------------------------------------| 
G|--11111111/1010/13131313/11111111--11111111/10/13/11/10/111111------| 
D|---x-x-x-x/-x-x/-x-x-x-x/-x-x-x-x---x-x-x-x/-x/-x/-x/-x/-x-x-x--4-4-| 
A|---9-9-9-9/-8-8/11111111/-9-9-9-9---9-9-9-9/-8/11/-9/-8/-9-9-9--4-4-| 
E|----------------------------------------------------------------2-2-|
Comments