Alkaline Trio - I Lied My Face Off Chords & Tabs

 

I Lied My Face Off Chords & Tabs

Alkaline Trio Chords & Tabs

Version: 3 Type: Bass Tab

I Lied My Face Off Bass Tab

This song is in no way, shape, or form my property. This is to be used as a learning 
and not as the final say-so on what this song is supposed to sound like.


There's a bit of a change up in the verse, it goes from the intro at about 00:15 to the 
and then at 00:30 it goes back to the intro. If you listen, it shouldn't be too hard to 
it out.


Intro x2 (00:04-00:15)
G:-----------------------------------------------------|
D:-2222-4444-5555-5555----554455-----------------------|
A:---------------------33---------22332200-------------|
E:-----------------------------------------------------|

Verse x2(00:15-00:30)
G:-----------------------------------------------------|
D:-2222-4444-5555-5555---------------------------------|
A:-----------------------3333-3333-2222-2222-----------|
E:-----------------------------------------------------|

Intro x1 (00:30-00:35)
G:-----------------------------------------------------|
D:-2222-4444-5555-5555----554455-----------------------|
A:---------------------33---------22332200-------------|
E:-----------------------------------------------------|

Pre-Chorus x1(00:36-00:41)

G:-----------------------------------------------------|
D:-----------------------------------------------------|
A:-2222-2222-2222-2222-3333-3333-3333-3333-------------|
E:-----------------------------------------------------|

Chorus x4 (00:42-1:00)

G:-----------------------------------------------------|
D:-----------------------------------------------------|
A:-----------2222-2222-3333-3333-----------------------|
E:-0000-0000---------------------3333-2222-------------|

End of Chorus x1 (1:01-1:10)

G:-----------------------------------------------------|
D:-----------------------------------------------------|
A:-----------2222-2222-3333-3333--------------22x3-2/3-|
E:-0000-0000---------------------3333-2222-00x---------|
[ Tab from: http://www.guitartabs.cc/tabs/a/alkaline_trio/i_lied_my_face_off_btab_ver_3.html ]
Post-Chorus x1 (1:11-1:17)
G:-----------------------------------------------------|
D:-2222-4444-5555-5555----554455-----------------------|
A:---------------------33---------22332200-------------|
E:-----------------------------------------------------|

Verse x4(1:18-1:40)
G:-----------------------------------------------------|
D:-2222-4444-5555-5555---------------------------------|
A:-----------------------3333-3333-2222-2222-----------|
E:-----------------------------------------------------|


Pre-Chorus x1(1:41-1:47)

G:-----------------------------------------------------|
D:-----------------------------------------------------|
A:-2222-2222-2222-2222-3333-3333-3333-3333-------------|
E:-----------------------------------------------------|

Chorus x4 (1:48-2:15)

G:-----------------------------------------------------|
D:-----------------------------------------------------|
A:-----------2222-2222-3333-3333-----------------------|
E:-0000-0000---------------------3333-2222-------------|

Bridge x8 (2:16-3:15)

G:-----------------------------------------------------|
D:-----------------------------------------------------|
A:-----------2222-2222-3333-3333-5555-5555-------------|
E:-0000-0000-------------------------------------------|

Chorus x1 (3:16-3:22)

G:-----------------------------------------------------|
D:-----------------------------------------------------|
A:-----------2222-2222-3333-3333-----------------------|
E:-0000-0000---------------------3333-2222-------------|

Chorus x1 (3:23-3:27)

G:-----------------------------------------------------|
D:-----------------------------------------------------|
A:-----------2222-2222-3333-3~-------------------------|
E:-0000-0000---------------------3-2-0~----------------|

End on E:0 while letting it ring.

Alkaline Trio is quite possibly one of my favorite bands, and a lot of the tabs didn't 
quite right. There's a few fills that I might've missed, but overall, I think this is 
and well worth the time spent tabbing it out. Happy playing, and remember, the bass
guitar has four strings cause it's that much more hardcore. ^_^