Alkaline Trio - Hell Yes Chords & Tabs

 

Hell Yes Chords & Tabs

Alkaline Trio Chords & Tabs

Version: 5 Type: Tab

Hell Yes Tab

Tuning - Standard

This is how Matt Skiba plays it live

Intro:
|-------------------------------------------------------------------------|
|-------------------------------------------------------------------------|
|-------------------------------------------------------------------------|
|------------------7-7-7-7--6-6--4-4--6-6-6-6-6-6--9-9--7-7--6-6--4-4-4-4-|
|-7-7-7-7-7-7-7-7--0-0-0-0--0-0--0-0--4-4-4-4-4-4--0-0--0-0--0-0--2-2-2-2-|
|-0-0-0-0-0-0-0-0---------------------------------------------------------|
Play this twice. The first time clean. Second time with distortion.

Verses:

|---------------------------------------------|
|---------------------------------------------|
|-------------------------4-4-2-2-2-2-2-2-2-2-|
|-2-2-2-2-2-2-2-2-2-2-2-2-4-4-2-2-2-2-2-2-2-2-| x4
|-2-2-2-2-2-2-2-2-2-2-2-2-2-2-0-0-0-0-0-0-0-0-|
|-0-0-0-0-0-0-0-0-0-0-0-0---------------------|
PM- - - - - - - - - - - - - - - - - - - - - -

|-----------------|
|-----------------|
|-4-4-4-4-2-2-2-2-|
|-4-4-4-4-2-2-2-2-|
|-2-2-2-2-0-0-0-0-|
|-----------------|

Chorus:
[ Tab from: http://www.guitartabs.cc/tabs/a/alkaline_trio/hell_yes_tab_ver_5.html ]
|---------------------------------------------------------------------|
|---------------------------------------------------------------------|
|-9-9-9-9-9-9-9-9-9-9-9-9-9-9-9-9-6-6-6-6-6-6-6-6-6-4-4-4-4-4-4-4-4-4-|
|-9-9-9-9-9-9-9-9-9-9-9-9-9-9-9-9-6-6-6-6-6-6-6-6-6-4-4-4-4-4-4-4-4-4-|
|-7-7-7-7-7-7-7-7-7-7-7-7-7-7-7-7-4-4-4-4-4-4-4-4-4-2-2-2-2-2-2-2-2-2-|
|-0-0-0-0-0-0-0-0-0-0-0-0-0-0-0-0-------------------------------------|
(the 0's are optional)

Bridge:

|-------------------------------------------------------------------|
|-------------------------------------------------------------------|
|-2-2-2-2-2-2-2-2-2-2-2-2-2-2-2-2-4-4-4-4-4-4-4-4-4-4-4-4-4-4-4-4-4-|
|-2-2-2-2-2-2-2-2-2-2-2-2-2-2-2-2-4-4-4-4-4-4-4-4-4-4-4-4-4-4-4-4-4-|
|-0-0-0-0-0-0-0-0-0-0-0-0-0-0-0-0-2-2-2-2-2-2-2-2-2-2-2-2-2-2-2-2-2-|
|-------------------------------------------------------------------|
play this 4 times

Outro:

|-----------------------------------------------------------------|
|-----------------------------------------------------------------|
|---------------------------------6-6-6-6-6-6-6-6-4-4-4-4-4-4-4-4-|
|-2-2-2-2-2-2-2-2-2-2-2-2-2-2-2-2-6-6-6-6-6-6-6-6-4-4-4-4-4-4-4-4-| x4
|-2-2-2-2-2-2-2-2-2-2-2-2-2-2-2-2-4-4-4-4-4-4-4-4-2-2-2-2-2-2-2-2-|
|-0-0-0-0-0-0-0-0-0-0-0-0-0-0-0-0---------------------------------|

|-------------------------------(0)-|
|-------------------------------(0)-|
|-2~-----------------------------1~-|
|-2~-----------------------------2~-|
|-0~-----------------------------2~-|
|--------------------------------0~-|

Song order:

Intro x2
Verse
Intro x2
Verse
Chorus x2
Intro x2
Verse
Chorus x4
Bridge
Intro x2
Outro