Alkaline Trio - Hell Yes Chords & Tabs

 

Hell Yes Chords & Tabs

Alkaline Trio Chords & Tabs

Version: 4 Type: Tab 0 ratings
1 star 2 stars 3 stars 4 stars 5 stars
comments

Hell Yes Tab

band:Alkaline Trio
song:Hell Yes
tab by:PunkRocka13
this song is extremely easy to learn
have fun with it

Intro                                               
e|-------------------------------------------------|
B|-------------------------------------------------|
G|-------------------------------------------------|
D|---------77-66-44-666666-99-77-66-44-------------|
A|-7777777-00-00-00-444444-00-00-00-00-------------|
E|-0000000-----------------------------------------|

Verse                                        
e|--------------------------------------------|
B|--------------------------------------------|
G|---------------4444444----------------------|
D|-2222222222222-4444444-7777777777777--------|
A|-2222222222222-2222222-7777777777777--------|
E|-0000000000000---------5555555555555--------|
   ............. ....... .............
[ Tab from: http://www.guitartabs.cc/tabs/a/alkaline_trio/hell_yes_tab_ver_4.html ]
Chorus                                              
e|---------------------------------------------------|
B|---------------------------------------------------|
G|-999999999999999999--6666666666--44444444444-------|
D|-999999999999999999--6666666666--44444444444-------|
A|-777777777777777777--4444444444--22222222222-------|
E|---------------------------------------------------|

Bridge
e|--------------------------------------|
B|--------------------------------------|
G|--------------------------------------|
D|-77777777-99999999--------------------|
A|-77777777-99999999--------------------|
E|-55555555-77777777--------------------|
   ........ ........

Outro
e|-----------------------------|
B|-----------------------------|
G|-----9-----------------------|
D|-7~--9-----------------------|
A|-7~--7-----------------------|
E|-5~--------------------------|

listen to the cd to get all the clean and distorion and stuff 
Intro  (2X)
Verse  (4X)
Intro  (2X)
Chrous (2X)
Intro  (2X)
Verse  (4X)
Chorus (4X)
Bridge (5X)
Intro  (2X)
Chorus (4X)
Outro  (1X)
Comments