Alkaline Trio - Hell Yes Chords & Tabs

 

Hell Yes Chords & Tabs

Alkaline Trio Chords & Tabs

Version: 2 Type: Tab 0 ratings
1 star 2 stars 3 stars 4 stars 5 stars
comments

Hell Yes Tab

It's Perfect [ i guess ]


INTRO (clean) X1
--------------------------------------------------------------------------------------
--------------------------------------------------------------------------------------
--------------------------------------------------------------------------------------
--9-9-9-9-9-9-9-9-9-9-7-7-6-6-6-6-6-6-6-6-6-6-6-6-9-9-7-7-6-6-4-4---------------------
--7-7-7-7-7-7-7-7-0-0-0-0-0-0-0-0-4-4-4-4-4-4-4-4-0-0-0-0-0-0-0-0---------------------
--------------------------------------------------------------------------------------


INTRO (distorted) X1


VERSE X4 (palm muted)

-------------------------------------------------------------------------------------
-------------------------------------------------------------------------------------
-------------------------------------------------------------------------------------
--9-9-9-9-9-9-9-9-9-9-9-9-9-9-9-9-7-7-7-7-7-7-7-7-7-7-7-7-7-7-7-7--------------------
--7-7-7-7-7-7-7-7-7-7-7-7-7-9-9-9-0-0-0-0-0-0-0-0-0-0-0-0-0-0-0-0--------------------
-------------------------------------------------------------------------------------

On the 4th time around, end on a distorted, unmuted version of this:
(this is the part I'm unsure of- comments welcome)

----------------------------
----------------------------
----------------------------
--9-9-9-9-7-7-7-7-----------
--9-9-9-9-7-7-7-7-----------
--7-7-7-7-5-5-5-5-----------


INTRO X2
VERSE X4

[ Tab from: http://www.guitartabs.cc/tabs/a/alkaline_trio/hell_yes_tab_ver_2.html ]
CHORUS X4
("Bless me, dark father...")
--------------------------------------------------------------------------------------
--------------------------------------------------------------------------------------
--9-9-9-9-9-9-9-9-9-9-9-9-9-9-9-9-6-6-6-6-6-6-6-6-4-4-4-4-4-4-4-4---------------------
--9-9-9-9-9-9-9-9-9-9-9-9-9-9-9-9-6-6-6-6-6-6-6-6-4-4-4-4-4-4-4-4---------------------
--7-7-7-7-7-7-7-7-7-7-7-7-7-7-7-7-4-4-4-4-4-4-4-4-2-2-2-2-2-2-2-2---------------------
--------------------------------------------------------------------------------------


INTRO X2
VERSE X4
CHORUS X4


BRIDGE X4
("Whispering sweet nothings")
----------------------------------------------------------------------------------------
----------------------------------------------------------------------------------------
----------------------------------------------------------------------------------------
--2-2-2-2-2-2-2-2-2-2-2-2-2-2-2-2-4-4-4-4-4-4-4-4-4-4-4-4-4-4-4-4-----------------------
--0-0-0-0-0-0-0-0-0-0-0-0-0-0-0-0-2-2-2-2-2-2-2-2-2-2-2-2-2-2-2-2-----------------------
----------------------------------------------------------------------------------------


INTRO X2
CHORUS X4

ENDING (let ring)

----------------------------------------------------------
----------------------------------------------------------
--2--------------------------1----------------------------
--2--------------------------2----------------------------
--0--------------------------2----------------------------
-----------------------------0----------------------------
Comments