Alkaline Trio - Goodbye Forever Chords & Tabs

 

Goodbye Forever Chords & Tabs

Alkaline Trio Chords & Tabs

Version: 2 Type: Tab 0 ratings
1 star 2 stars 3 stars 4 stars 5 stars
comments

Goodbye Forever Tab

This song is my favorite of the selftitled album from Alkaline Trio

Tabbed by: John Cywinski
Song: Goodbye Forever

INTRO
-------------------------------------------------|
-1010--101010---101010---10101010----------------|
-9-9---9-9-9----9-9-9----9-9-9-9---------6-------|
-7-7---7-7-7----7-7-7----7-7-7-7---------6(16x)--|
-0-0---0-0-0----0-0-0----0-0-0-0---------4-------|
-------------------------------------------------|

[ Tab from: http://www.guitartabs.cc/tabs/a/alkaline_trio/goodbye_forever_tab_ver_2.html ]
--------------------------------------------------|
--1010---101010---101010--------------------------|
--9-9----9-9-9----9-9-9-------6-----6-----7-------|
--7-7----7-7-7----7-7-7-------6(8x)-x(4x)-x(4x)---|
--0-0----0-0-0----0-0-0-------4-----4-----4-------|

After this ^ you play the first set then go to this

-------------------|
-------------------|
-4------------2--4-|
-4 pickslide--2--4-|
-2------------0--2-|
-------------------|
Comments