Alkaline Trio - Fuck You Aurora Chords & Tabs

 

Fuck You Aurora Chords & Tabs

Alkaline Trio Chords & Tabs

Version: 2 Type: Tab 0 ratings
1 star 2 stars 3 stars 4 stars 5 stars
comments

Fuck You Aurora Tab

-------------------------------------------------------------------------------
			    Alkaline Trio - Fuck You Aurora                    
-------------------------------------------------------------------------------
Tabbed by:Nick D
Email: onelastcaress8_8@yahoo.com
Tuning:Standard (EADGBE)


Key
X - Dead Note

Intro/Verse
e|---------------------------------------------------------------------------|
B|---------------------------------------------------------------------------|
G|--77777777-x-4444-5555-x---------------------------------------------------|
D|--55555555-x-2222-2222-x-55555555-55555555---------------------------------|
A|-------------------------22222222-33333333---------------------------------|
E|---------------------------------------------------------------------------|

Bridge

e|---------------------------------------------------------------------------|
B|---------------------------------------------------------------------------|
G|--7-7-7-7-7-7-7-7-7-7-7-7-7-7-7-7--5-5-5-5-5-5-5-5-5-5-5-5-5-5-5-5---------|
D|--7-7-7-7-7-7-7-7-7-7-7-7-7-7-7-7--5-5-5-5-5-5-5-5-5-5-5-5-5-5-5-5---------|
A|--5-5-5-5-5-5-5-5-5-5-5-5-5-5-5-5--3-3-3-3-3-3-3-3-3-3-3-3-3-3-3-3---------|
E|---------------------------------------------------------------------------|
[ Tab from: http://www.guitartabs.cc/tabs/a/alkaline_trio/fuck_you_aurora_tab_ver_2.html ]
e|---------------------------------------------------------------------------|
B|---------------------------------------------------------------------------|
G|--7-7-7-7-7-7-7-7-7-7-7-7-7-7-7-7--5-5-5-5-5-5-5-5--7-7-7-7-7-7-7-7--------|
D|--7-7-7-7-7-7-7-7-7-7-7-7-7-7-7-7--5-5-5-5-5-5-5-5--7-7-7-7-7-7-7-7--------|
A|--5-5-5-5-5-5-5-5-5-5-5-5-5-5-5-5--3-3-3-3-3-3-3-3--5-5-5-5-5-5-5-5--------|
E|---------------------------------------------------------------------------|


Chorus

e|---------------------------------------------------------------------------|
B|---------------------------------------------------------------------------|
G|----------55555555-77777777-55555555---------------------------------------|
D|-55555555-55555555-77777777-55555555---------------------------------------|   x 3
A|-55555555-33333333-55555555-33333333---------------------------------------|
E|-33333333------------------------------------------------------------------|

(Palm Muted)

e|---------------------------------------------------------------------------|
B|---------------------------------------------------------------------------|
G|--7-7-7-7-7-7-7-7-7-7-7-7-7-7-7-7--5-5-5-5-5-5-5-5--7-7-7-7-7-7-7-7--------|
D|--7-7-7-7-7-7-7-7-7-7-7-7-7-7-7-7--5-5-5-5-5-5-5-5--7-7-7-7-7-7-7-7--------|
A|--5-5-5-5-5-5-5-5-5-5-5-5-5-5-5-5--3-3-3-3-3-3-3-3--5-5-5-5-5-5-5-5--------|
E|---------------------------------------------------------------------------|

Here's The Order:
Intro x2
Verse x4
Bridge
Intro x2
Verse x4
Bridge
Chorus
Intro x2
Verse x4 (1st Time No Guitar)
Bridge
Chorus 

Hope This Helps
Comments