Alkaline Trio - Every Thug Needs A Lady Chords & Tabs

 

Every Thug Needs A Lady Chords & Tabs

Alkaline Trio Chords & Tabs

Version: 3 Type: Tab 0 ratings
1 star 2 stars 3 stars 4 stars 5 stars
comments

Every Thug Needs A Lady Tab

   
-------------------------------------------------------------------------------
		  Every Thug Needs A Lady - Alkaline Trio
-------------------------------------------------------------------------------
Tabbed by:Bobblefots143
Email:TopHatAtckOcelot@netscape.net

Tuning:  Standard

| /  slide up
| \  slide down
| h  hammer-on
| p  pull-off
| ~  vibrato
| +  harmonic
| x  Mute note
| .  Palm Mute
  Intro
e|3--33-x-3~------3--33-x-3~------3--33-x-3~----------------------|
B|3--33-x-0~------3--33-x-0~------3--33-x-0~----------------------|
G|0--00-x-0~------2--22-x-2~------0--00-x-0~------5-5-5-5-5-5-5-5-|
D|0--00-x-0~------2--22-x-2~------2--22-x-2~------5-5-5-5-5-5-5-5-|
A|2--22-x-2~------------x---------2--22-x-2~------3-3-3-3-3-3-3-3-|
E|3--33-x-3~------------x---------------x-------------------------|
  1 + 2 + 3 + 4 +

  Verse 1
e|----------------------------------------------------------------|
B|----------------------------------------------------------------|
G|----------------2-2-2-2-2-2-2-2-----------------5-5-5-5-5-5-5-5-|
D|5-5-5-5-5-5-5-5-2-2-2-2-2-2-2-2-2-2-2-2-2-2-2-2-5-5-5-5-5-5-5-5-|
A|5-5-5-5-5-5-5-5-0-0-0-0-0-0-0-0-2-2-2-2-2-2-2-2-3-3-3-3-3-3-3-3-|
E|3-3-3-3-3-3-3-3-----------------0-0-0-0-0-0-0-0-----------------|
  . . . . . . . . . . . . . . . . . . . . . . . . . . . . . . . . 
e|----------------------------------------------------------------|
B|----------------------------------------------------------------|
G|----------------7-7-7-7-7-7-7-7-5-5-5-5-5-5-5-5-5-5-5-5-5-5-5-5-|
D|5-5-5-5-5-5-5-5-7-7-7-7-7-7-7-7-5-5-5-5-5-5-5-5-5-5-5-5-5-5-5-5-|
A|5-5-5-5-5-5-5-5-5-5-5-5-5-5-5-5-3-3-3-3-3-3-3-3-3-3-3-3-3-3-3-3-|
E|3-3-3-3-3-3-3-3-------------------------------------------------|
  . . . . . . . . . . . . . . . . . . . . . . . . . . . . . . . . 

  Pre-Chorus
e|----------------------------------------------------------------|
B|----------------------------------------------------------------|
G|77777-----------5-5-5-5-5-5-5-5-77777-----------5-5-5-5-5-5-5-5-|
D|77777-----------5-5-5-5-5-5-5-5-77777-----------5-5-5-5-5-5-5-5-|
A|55555-----------3-3-3-3-3-3-3-3-55555-----------3-3-3-3-3-3-3-3-|
E|----------------------------------------------------------------|

e|----------------------------------------------------------------|
B|----------------------------------------------------------------|
G|7-7-7-7-7-7-7-7-5-5-5-5-4-4-4-4-----------------5-5-5-5-7-7-7-7-|
D|7-7-7-7-7-7-7-7-5-5-5-5-4-4-4-4-2-2-2-2-2-2-2-2-5-5-5-5-7-7-7-7-|
A|5-5-5-5-5-5-5-5-3-3-3-3-2-2-2-2-2-2-2-2-2-2-2-2-3-3-3-3-5-5-5-5-|
E|--------------------------------0-0-0-0-0-0-0-0-----------------|

  Chorus
e|----------------------------------------------------------------|
B|----------------------------------------------------------------|
G|--------5-5-5-5-----------------5-5-5-5-----------------5-5-7-7-|
D|5-5-5-5-5-5-5-5-2-2-2-2-2-2-2-2-5-5-5-5-5-5-5-5-7-7-7-7-5-5-7-7-|
A|5-5-5-5-3-3-3-3-2-2-2-2-2-2-2-2-3-3-3-3-5-5-5-5-7-7-7-7-3-3-5-5-|
E|3-3-3-3---------0-0-0-0-0-0-0-0---------3-3-3-3-5-5-5-5---------|
[ Tab from: http://www.guitartabs.cc/tabs/a/alkaline_trio/every_thug_needs_a_lady_tab_ver_3.html ]
  Verse 2a
e|----------------------------------------------------------------|
B|----------------------------------------------------------------|
G|----------------2-2-2-2-2-2-2-2-----------------5-5-5-5-5-5-5-5-|
D|5-5-5-5-5-5-5-5-2-2-2-2-2-2-2-2-2-2-2-2-2-2-2-2-5-5-5-5-5-5-5-5-|
A|5-5-5-5-5-5-5-5-0-0-0-0-0-0-0-0-2-2-2-2-2-2-2-2-3-3-3-3-3-3-3-3-|
E|3-3-3-3-3-3-3-3-----------------0-0-0-0-0-0-0-0-----------------|
  . . . . . . . . . . . . . . . . . . . . . . . . . . . . . . . .
e|----------------------------------------------------------------|
B|----------------------------------------------------------------|
G|----------------7-7-7-7-7-7-7-7-5-5-5-5-5-5-5-5-5-5-5-5-5-5-5-5-|
D|5-5-5-5-5-5-5-5-7-7-7-7-7-7-7-7-5-5-5-5-5-5-5-5-5-5-5-5-5-5-5-5-|
A|5-5-5-5-5-5-5-5-5-5-5-5-5-5-5-5-3-3-3-3-3-3-3-3-3-3-3-3-3-3-3-3-|
E|3-3-3-3-3-3-3-3-------------------------------------------------|
  . . . . . . . . . . . . . . . . . . . . .     . . . . . .     .

e|----------------------------------------------------------------|
B|----------------------------------------------------------------|
G|----------------2-2-2-2-2-2-2-2-----------------5-5-5-5-5-5-5-5-|
D|5-5-5-5-5-5-5-5-2-2-2-2-2-2-2-2-2-2-2-2-2-2-2-2-5-5-5-5-5-5-5-5-|
A|5-5-5-5-5-5-5-5-0-0-0-0-0-0-0-0-2-2-2-2-2-2-2-2-3-3-3-3-3-3-3-3-|
E|3-3-3-3-3-3-3-3-----------------0-0-0-0-0-0-0-0-----------------|
  . . . . . . . . . . . . . . . . . . . . . . . . . . . . . . . .
e|----------------------------------------------------------------|
B|----------------------------------------------------------------|
G|----------------7-7-7-7-7-7-7-7-5-5-5-5-5-5-5-5-5-5-5-5-5-5-5-5-|
D|5-5-5-5-5-5-5-5-7-7-7-7-7-7-7-7-5-5-5-5-5-5-5-5-5-5-5-5-5-5-5-5-|
A|5-5-5-5-5-5-5-5-5-5-5-5-5-5-5-5-3-3-3-3-3-3-3-3-3-3-3-3-3-3-3-3-|
E|3-3-3-3-3-3-3-3-------------------------------------------------|
  . . . . . . . . . . . . . . . . . . . . .     . .     . .     .
  
  Bridge
e|3--3333-3333333-3--3333-3333333-3--3333-3333333-----------------|
B|3--3333-3300000-3--3333-3300000-3--3333-3300000-----------------|
G|0--0000-0000000-2--2222-2222222-0--0000-0000000--5--5555-555555-|
D|0--0000-0000000-2--2222-2222222-2--2222-2222222--5--5555-555555-|
A|2--2222-2222222-----------------2--2222-2222222--3--3333-333333-|
E|3--3333-3333333-------------------------------------------------|
  
  Outro 1
e|----------------------------------------------------------------|
B|----------------------------------------------------------------|
G|--------7-7-7-7-5-5-5-5-5-5-5-5---------7-7-7-7-5-5-5-5-5-5-5-5-|
D|5-5-5-5-7-7-7-7-5-5-5-5-5-5-5-5-5-5-5-5-7-7-7-7-5-5-5-5-5-5-5-5-|
A|5-5-5-5-5-5-5-5-3-3-3-3-3-3-3-3-5-5-5-5-5-5-5-5-3-3-3-3-3-3-3-3-|
E|3-3-3-3-------------------------3-3-3-3-------------------------|

  Outro 2
e|----------------------------------------------------------------|
B|----------------------------------------------------------------|
G|--------7-7-7-7-5-5-5-5-7-7-7-7---------7-7-7-7-5-5-5-5-7-7-7-7-|
D|5-5-5-5-7-7-7-7-5-5-5-5-7-7-7-7-5-5-5-5-7-7-7-7-5-5-5-5-7-7-7-7-|
A|5-5-5-5-5-5-5-5-3-3-3-3-5-5-5-5-5-5-5-5-5-5-5-5-3-3-3-3-5-5-5-5-|
E|3-3-3-3---------------------------------------------------------|

  End Note
e|-|
B|-|
G|-|
D|5|
A|5|
e|3|

Song Layout
Intro 2x
Verse 1 2x
Pre-Chorus 1x
Chorus 2x
Intro 2x
Verse 2 1x
Pre-Chorus 1x
Chorus 2x
Bridge 2x
Outro 1 2x
Outro 2 2x
End Note 1x
===============================================================================
Comments