Alkaline Trio - Emma Chords & Tabs

 

Emma Chords & Tabs

Alkaline Trio Chords & Tabs

Version: 1 Type: Tab 0 ratings
1 star 2 stars 3 stars 4 stars 5 stars
comments

Emma Tab

Band:Alkaline Trio
Song:Emma
Tabbed by: Reed
Tuning: Standard

This is an awesome song off their new cd, Good Mourning.


Intro
E---------------------------
B---------------------------
G-------------2----4--------
D---2---------2----4--------
A---2---------0----2--------
E---0-----------------------


Verse (Palm Muted)
E--------------------------------------------------------
B--------------------------------------------------------
G----------------------22222222---44444444---------------
D---2222222222222222---22222222---44444444---------------
A---2222222222222222---00000000---22222222---------------
E---0000000000000000-------------------------------------
[ Tab from: http://www.guitartabs.cc/tabs/a/alkaline_trio/emma_tab.html ]
Chorus
E--------------------------------------------------------
B--------------------------------------------------------
G---66666666--------------99999999-----------------------
D---66666666---77777777---99999999---99999999------------
A---44444444---77777777---77777777---99999999------------
E--------------55555555--------------77777777------------

Bridge
E--------------------------------------------------------
B--------------------------------------------------------
G----------------------22222222---44444444---------------
D---2222222222222222---22222222---44444444---------------
A---2222222222222222---00000000---22222222---------------
E---0000000000000000-------------------------------------
Comments