Alkaline Trio - Emma Chords & Tabs

 

Emma Chords & Tabs

Alkaline Trio Chords & Tabs

Version: 2 Type: Bass Tab 0 ratings
1 star 2 stars 3 stars 4 stars 5 stars
comments

Emma Bass Tab

----------------------------------------------------------------------------
			       EMMA - Alkaline Trio
----------------------------------------------------------------------------


Tabbed By : Seejay
e-mail : Stryker182@hotmail.co.uk
Artist : Alkaline Trio
Tuning : Standard (EADG)

Intro
G|----------------------------------------------------------------------|
D|----2222--221122----11122-----1122------------------------------------|
A|-----------------000------2222----------------------------------------|
E|-000----00------------------------------------------------------------|
[ Tab from: http://www.guitartabs.cc/tabs/a/alkaline_trio/emma_btab_ver_2.html ]
Verse
G|----------------------------------------------------------------------|
D|----------------------------------------------------------------------|
A|--------0(x8)-2(x8)-/-7(x16)-0(x8)-2(x8)------------------------------|
E|-0(x16)---------------------------------------------------------------|

Chrous
G|----------------------------------------------------------------------|
D|---------------------------------221122-------------------------------|
A|-4(x8)-0(x8)-------2(x8)-4(x8)-00-------------0(x16)------------------|
E|-------------0(x8)----------------------0(x8)-------------------------|

Structure:
Intro x2
Verse x2
Chorus x1
Intro x2
Verse x2
Chorus x1
Intro x2
Chorus x2
Intro x4
End Song With Open E And Let It Fade

This Song is Awsome, i have played it with my band and it sounds 100% 
correct, right down to every last fill. but as always, if there are
 any problems with it, E-mail me at Stryker182@hotmail.co.uk. Laters
Comments