Alkaline Trio - Emma Chords & Tabs

 

Emma Chords & Tabs

Alkaline Trio Chords & Tabs

Version: 1 Type: Bass Tab 0 ratings
1 star 2 stars 3 stars 4 stars 5 stars
comments

Emma Bass Tab

-------------------------------------------------------------------------------
			     EMMA- Alkaline Trio
-------------------------------------------------------------------------------

Tabbed By : Peter Mancina
e-mail: Skatrm4@aol.com
This is a great song by a great band. Mikels HOt

Intro(x2)
G|---------------------------------------------------------------------------
D|---------------------------------------------------------------------------
A|-----------------------0-2-4-5-4-7-----------------------------------------
E|-0-2-4-5-4--0-2-4-5-4---------------0-2-4----------------------------------


Verse(x2)
G|---------------------------------------------------------------------------
D|---------------------------------------------------------------------------
A|----0(x4)---2(x4)---7(x8)---4(x4)----0(x4)---------------------------------
E|-0(x8)---------------------------------------------------------------------

[ Tab from: http://www.guitartabs.cc/tabs/a/alkaline_trio/emma_btab.html ]
Chorus(x2)
G|---------------------------------------------------------------------------
D|---------------------------------------------------------------------------
A|-4(x8)----------7(x8)------------------------------------------------------
E|-------5(x8)------------7(x8)----------------------------------------------

Bridge(x2)
G|---------------------------------------------------------------------------
D|---------------------------------------------------------------------------
A|-----------------------0-2-4-5-4-7-----------------------------------------
E|-0-2-4-5-4--0-2-4-5-4---------------0-2-4----------------------------------


Outro Chorus(x4)
G|---------------------------------------------------------------------------
D|---------------------------------------------------------------------------
A|-4(x8)----------7(x8)------------------------------------------------------
E|-------5(x8)------------7(x8)----------------------------------------------

Outro(x4)
G|---------------------------------------------------------------------------
D|---------------------------------------------------------------------------
A|-----------------------0-2-4-5-4-7-----------7-----------------------------
E|-0-2-4-5-4--0-2-4-5-4---------------0-2-4----------------------------------

The intro is not accurate, but if you want to play something that sounds like it.
Comments