Alkaline Trio - Dead And Broken Chords & Tabs

 

Dead And Broken Chords & Tabs

Alkaline Trio Chords & Tabs

Version: 1 Type: Bass Tab 0 ratings
1 star 2 stars 3 stars 4 stars 5 stars
comments

Dead And Broken Bass Tab

ALKALINE TRIO
DEAD AND BROKEN
tabbed by Dean, e_mericana@hotmail.com

I took the guitar tab and modified it for bass, this sounds pretty right
its not 100% though.

Intro 
G|------------------------| 
D|---11---11-11--11--9--9-| 
A|-99--999--9--00--77-7---| 
E|------------------------|

VERSE
G|------------------------| 
D|------------------------|
A|-9#---0#---7#-----------| x2
E|------------------------|
[ Tab from: http://www.guitartabs.cc/tabs/a/alkaline_trio/dead_and_broken_btab.html ]
END OF VERSE
G|------------------------| 
D|------------------------|
A|-9#--0#--7#--5#--7#--5#-| x1
E|------------------------|

CHORUS
G|------------------------| 
D|------------------------|
A|---------5#-------------| x2
E|-5#--2#-----------------|

END OF CHORUS
G|--------------------------------| 
D|--------------7-7-7-7-----------|
A|---------5#--5-5-5-5---7#--8#---| x1
E|-5#--2#-------------------------|

For the cutting off the hands we used to hold bridge play the chorus.

End 
G|-----------| 
D|-----------|
A|-----------| 
E|---5-------|

for any corrections or anything email me at e_mericana@hotmail.com
Comments