Alkaline Trio - Crawl Chords & Tabs

 

Crawl Chords & Tabs

Alkaline Trio Chords & Tabs

Version: 1 Type: Bass Tab 0 ratings
1 star 2 stars 3 stars 4 stars 5 stars
comments

Crawl Bass Tab

   
-----------------------------------------------------------------------------
			     Crawl - Alkaline Trio
-----------------------------------------------------------------------------

Tabbed By :rancidbass220
Tuning:normal
this song is off their old album From here to infirmary. Its a fucking great
song and fun to play too! wait for about 2 seconds then play. 
Intro 1
G|-----44------------------------------------------------4-----------------|
D|---2----2---4--4------22-4p2p1h2---6--6------2--2-----2-2-1-2-1-2-4-2-1--|
A|-0--------22-22-2p0-00-----------44-44-4p0-00-00-00---------------------2|
E|----------------------------------------------------0--------------------|

Intro 2
G|---------------44------------------------------------------------4-|
D|---6--6------22--22---4--4------22-4p2p1h2---6--6------2--2-----2-2|
A|-44-44-4p0-00-------22-22-2p0-00-----------44-44-4p0-00-00-00------|
E|--------------------------------------------------------------0----|

G|----------------|
D|-1-2-1-2-4-2-1--|
A|---------------0|
E|----------------|

Verse (hammer on first time of first verse only)
G|------------------------------------|
D|------------------------------------|
A|h22222222-44444444-0000000000000000-|
E|------------------------------------|

Verse variation
G|-------------------------22-----222-|
D|------------------------------------|
A|22222222-44444444-00000h2--00000----|
E|------------------------------------|
[ Tab from: http://www.guitartabs.cc/tabs/a/alkaline_trio/crawl_btab.html ]
Intro 3
G|---------------44------------------------------------------------4-|
D|---6--6------22--22---4--4------22-4p2p1h2---6--6------2--2-----2-2|
A|-44-44-4p0-00-------22-22-2p0-00-----------44-44-4p0-00-00-00------|
E|--------------------------------------------------------------0----|

G|-----------|
D|-1-2-2/4\2-|
A|-----------|
E|-----------|

Verse end
G|------------------|
D|------------------|
A|-2222222222222222-|
E|------------------|

Chorus                                                  Ending 1
G|-----------------------------------------------------|----------------|
D|----------------------------------------4444----4444-|----2222----2222|
A|----------00000000----------4444444-2222----2222-----|0000----0000----|
E|-00000000----------00000000--------------------------|----------------|
  Ending 2
G|----------------------------------|
D|----------------------------------|
A|0000000000000000-0000000000000000-|
E|----------------------------------|

Interlude
G|----------------------------|
D|-11-22-44-22-11-44----------| 2x
A|----------------------------|
E|-------------------00000000-|

Breakdown
G|-------------------------------------|
D|-------------------------------------|
A|-77777777-66666666-------------------|
E|-------------------55555555-77777777-|

End on
A|7~|

Structure
Intro 1         1x
Intro 2         1x
Verse           1x
Verse variation 1x
Verse           3x
Intro 3         1x
Verse           4x
Verse end       1x
Chours          1x
Chorus end 1    1x
Chours          1x
Chorus end 2    1x
Interlude       1x
Verse           4x
Verse end       1x
Chours          1x
Chorus end 1    1x
Chours          1x
Chorus end 2    1x
Breakdown       6x
End note        1x

Thats all. if you dont like it make your own. remember alk3 rocks!
Comments