Alkaline Trio - Cop Chords & Tabs

 

Cop Chords & Tabs

Alkaline Trio Chords & Tabs

Version: 1 Type: Bass Tab

Cop Bass Tab

 INTRO                                                                   X2
G|---------------------------------------------------------------------------|
D|---------------------------------------------------------------------------|
A|-/12121212121212121212121212121212//12121212121212121212121212121212//-----|
E|---------------------------------------------------------------------------|

G|---------------------------------------------------------------------------|
D|---------------------------------------------------------------------------|
A|---------------------------7-5-4-2-2-4-2-----------------------------------|
E|-55555555555555555555555555-5-5-5-5-5-5-5-5-55555555555555555-55-REST------|

  1ST VERSE
G|---------14~-------------------------764-----------------------------------|
D|----------------------------------------754--------------------------------|
A|---------------------------------------------------------------------------|
E|-55--55-----55-4444444444444444-55-55-------55-44-444-444444444------------|

  CHORUS
G|----------6--6//--4--4-----------------------------------------------------------|
D|---7--7-44-44---22-22-----7--7-----------7--7-----------------------------------0022|
A|-55-55------------------55-55---4---4--55-55---2--2------------------------002244|
E|------------------------------22-222-2-------00-00-00000000000000000-002244------|
[ Tab from: http://www.guitartabs.cc/tabs/a/alkaline_trio/cop_btab.html ]
  POST-CHORUS
G|-------14~---------------------------------------------------------------|
D|-------------------------------------------------------------------------|
A|-------------------------------------------------------------------------|
E|-55-55----55-------------------------------------------------------------|

  2ND VERSE
G|--------------------------------------------------14~14~------------------|
D|--------------------------------------------------------------------------|
A|--------------------------------------------------------------------------|
E|-44444444444444444-55-55-55-4444444444444444-55-55------55-444444444444444|

  INTERLUDE
G|----------------------------------------------------------2--2--2--2--2--2--2--2-|
D|---2--2--2--2--2--2--2--2--------------------------------------------------------|
A|-00-00-00-00-00-00-00-00--------------------------------00-00-00-00-00-00-00-00--|
E|-------------------------0000000000000000000000000000000-------------------------|

G|---------------------------------------------------------------------------|
D|---------------------------------------------------------------------------|
A|---------------------------------------------------------------------------|
E|-00000000000000000000000000000000------------------------------------------|
   OUTRO
G|---------------------------------------------------------------------------|
D|---------------------------------------------------------------------------|
A|---------------------------------------------------------------------------|
E|-55------------------------------------------------------------------------|