Alkaline Trio - Cooking Wine Chords & Tabs

 

Cooking Wine Chords & Tabs

Alkaline Trio Chords & Tabs

Version: 2 Type: Tab 0 ratings
1 star 2 stars 3 stars 4 stars 5 stars
comments

Cooking Wine Tab

Okay, here's the deal - this was originally not my tab, but after seeing some complaints 
users about the last part of the song, I've decided to add it, out of pure sympathy.  
make a mark on what is mine.

Alkaline Trio - Cooking Wine


Intro (Distorted)
e|----------------------------------------------------||
B|----------------------------------------------------||
G|--777----------------777----------------------------||
D|--777-7777-55555555--777-7777-44445555--------------||
A|--555-7777-55555555--555-7777-44445555--------------||
E|------5555-33333333------5555-22223333--------------||

e|----------------------------------------------------||
B|----------------------------------------------------||
G|--777----------------777----------------------------||
D|--777-7777-55555555--777-7777-44445555--------------||
A|--555-7777-55555555--555-7777-44445555--------------||
E|------5555-33333333------5555-22223333--------------||
                                ........................

Verse (Distorted)
e|----------------------------------------------------||
B|----------------------------------------------------||
G|--7-------------------------------------------------||
D|--7--7--5----------let notes ring-------------------|| x4
A|--5--7--5-------------------------------------------||
E|-----5--3-------------------------------------------||
[ Tab from: http://www.guitartabs.cc/tabs/a/alkaline_trio/cooking_wine_tab_ver_2.html ]
Chorus (Distorted)
e|----------------------------------------------------||
B|----------------------------------------------------||
G|---------------77779999-----------------------------||
D|--5555555555---77779999-x4--------------------------||
A|--5555555555---55557777-----------------------------||
E|--3333333333----------------------------------------||
 On fourth time at the end add:

e|----------------------------------------------------||
B|----------------------------------------------------||
G|----------------------------------------------------||
D|--5555555555----------------------------------------||
A|--5555555555----------------------------------------||
E|--3333333333----------------------------------------||


*This part added by me*

Bridge/Outro:

Right after he says "I'll sleep for days" a few times on the second chorus.

---------------------------------------------------------------------------|
---------------------------------------------------------------------------|
---777---------------12-12-12-12---11-11--9--6---777-----------------------|
---777--77777--------X--X--X--X----X--X---X--X---777-77777---444-55555-----|
---555--77777--------10-10-10-10---9--9---7--4---555-77777---444-55555-----|
--------55555----------------------------------------55555---222-33333-----|


-----------------------------------------------------------------------------|
-----------------------------------------------------------------------------|
---777---------------12-12-12-12---11-11--9--6---777---------------------7~--|
---777--77777--------X--X--X--X----X--X---X--X---777-77777---444-555-77--7~--|
---555--77777--------10-10-10-10---9--9---7--4---555-77777---444-555-77--5~--|
--------55555----------------------------------------55555---222-333-55------|
PM                                                           --- --- --------|

Order
Intro
Verse
Intro
Chorus
Intro
Intro (use the intro as the verse, pm the last bit)
Chorus
Bridge/Outro
Comments