Alkaline Trio - Cooking Wine Chords & Tabs

 

Cooking Wine Chords & Tabs

Alkaline Trio Chords & Tabs

Version: 1 Type: Bass Tab 0 ratings
1 star 2 stars 3 stars 4 stars 5 stars
comments

Cooking Wine Bass Tab

Alkaline Trio - Cooking Wine
Tabbed By: PiP
EMail: pipbeast22@aol.com

[ Tab from: http://www.guitartabs.cc/tabs/a/alkaline_trio/cooking_wine_btab.html ]
Intro
G--------------------
D---0-2-3------------
A---------0---00-----
E-----------------0--

End of Intro/Verse

G-----------------
D-----------------
A-----------------
E-3-3-3-2--3-3-0--
Comments