Alkaline Trio - Children In Heat Chords & Tabs

 

Children In Heat Chords & Tabs

Alkaline Trio Chords & Tabs

Version: 1 Type: Tab 0 ratings
1 star 2 stars 3 stars 4 stars 5 stars
comments

Children In Heat Tab

CHILDREN IN HEAT
ALKALINE TRIO
TABBED BY e_mericana@hotmail.com dean 


listen to cd for strumming patterns.
INTRO AND VERSE
e|---------------------------------------| 
B|---------------------------------------| 
G|--4--2--7------------------------------| 
D|--4--2--7------------------------------| 
A|--2--0--5------------------------------| 
E|---------------------------------------| 

END OF VERSE
e|----------------------------------------|
B|----------------------------------------|
G|-----7----------------------------------|
D|--2--7----------------------------------|
A|--2--5----------------------------------|
E|--0-------------------------------------|

[ Tab from: http://www.guitartabs.cc/tabs/a/alkaline_trio/children_in_heat_tab.html ]
NO RESISTANCE...
e|---------------------------------------| 
B|---------------------------------------| 
G|-----7---------------------------------| 
D|--7--7---------------------------------| 
A|--7--5---------------------------------| 
E|--5------------------------------------| 


e|---------------------------------------| 
B|---------------------------------------| 
G|--9------------------------------------| 
D|--9------------------------------------| 
A|--7------------------------------------| 
E|---------------------------------------| 


CHILDREN IN HEAT...
E|---------------------------------------|
B|---------------------------------------|
G|--4--6-----7--4------------------------|
D|--4--6--7--7--4------------------------|
A|--2--4--7--5--2------------------------|
E|--------5------------------------------|


REPEAT IT ALL OVER AGAIN.
PLAY THE CHILDREN IN HEAT BIT OVER A FEW TIMES
LISTEN TO THE CD.

END

E|---------------------------------------|
B|---------------------------------------|
G|--4------------------------------------|
D|--4------------------------------------|
A|--2------------------------------------|
E|---------------------------------------|
Comments