Alkaline Trio - As You Were Chords & Tabs

 

As You Were Chords & Tabs

Alkaline Trio Chords & Tabs

Version: 1 Type: Tab 0 ratings
1 star 2 stars 3 stars 4 stars 5 stars
comments

As You Were Tab

As You Were
Alkaline Trio
Goddamnit
Mike Hegarty (mikehegarty_69@hotmail.com)

A very awesome song off the old but excellent album. I can't believe there wasn't
already a tab for this song on this website.
Anyway enjoy...

Intro
|-----------------------------------------------------------|
|-----------------------------------------------------------|
|-----999999999999-------------------------6666444-------4--|
|-9999999999999999-222244444444444466666666-------22222224--|
|-7777777777777777-000022222222222244444444444422200000002--|
|-0000000000000000------------------------------------------|

Verse
|-----------------------------------------------------------|
|-----------------------------------------------------------|
|-----999999999999-------------------------6666444-------4--|
|-9999999999999999-222244444444444466666666-------22222224--|
|-7777777777777777-000022222222222244444444444422200000002--|
|-0000000000000000------------------------------------------|

|-----------------------------------------------------------|
|-----------------------------------------------------------|
|-----999999999999-------------------------6666444-------4--|
|-9999999999999999-222244444444444466666666-------22222224--|
|-7777777777777777-000022222222222244444444444422200000002--|
|-0000000000000000------------------------------------------|

|------------------------------------------------------------------|
|------------------------------------------------------------------|
|-999-------------999---------------------66664444-----------------|
|-999-999-7777777-999-999-7777777-66666666--------2222222444444444-|
|-777-999-7777777-777-999-7777777-44444444444422220000000222222222-|
|-----777-5555555-----777-5555555----------------------------------|

|-----------------------------------------------------------|
|-----------------------------------------------------------|
|-----999999999999-------------------------6666444-------4--|
|-9999999999999999-222244444444444466666666-------22222224--|
|-7777777777777777-000022222222222244444444444422200000002--|
|-0000000000000000------------------------------------------|

Verse 2
|-----------------------------------------------------------|
|-----------------------------------------------------------|
|-----999999999999-------------------------6666444-------4--|
|-9999999999999999-222244444444444466666666-------22222224--|
|-7777777777777777-000022222222222244444444444422200000002--|
|-0000000000000000------------------------------------------|

|------------------------------------------------------------------|
|------------------------------------------------------------------|
|-999-------------999---------------------66664444-----------------|
|-999-999-7777777-999-999-7777777-66666666--------2222222444444444-|
|-777-999-7777777-777-999-7777777-44444444444422220000000222222222-|
|-----777-5555555-----777-5555555----------------------------------|

Chorus
|----------------------------------------------------------------|
|----------------------------------------------------------------|
|----------------------------------------------------------44-22-|
|-99999999999999999999999999999999666666666666666666666666-44-22-|
|-77777777777777777777777777777777444444444444444444444444-22-00-|
|-00000000000000000000000000000000-------------------------------|
[ Tab from: http://www.guitartabs.cc/tabs/a/alkaline_trio/as_you_were_tab.html ]
|----------------------------------------------------------------|
|----------------------------------------------------------------|
|----------------------------------------------------------44-22-|
|-99999999999999999999999999999999666666666666666666666666-44-22-|
|-77777777777777777777777777777777444444444444444444444444-22-00-|
|-00000000000000000000000000000000-------------------------------|

Post-Chorus
|---------------------------------|
|---------------------------------|
|-99999999999999999999999999999---|
|-99999999999999999999999999999---|
|-77777777777777777777777777777---|
|-00000000000000000000000000000-/-|

Bridge
|------------------------------------------------------------------|
|------------------------------------------------------------------|
|-9999999999999999999999998888888866666666666666666666666644444444-|
|------------------------------------------------------------------|
|-7777777777777777777777776666666644444444444444444444444422222222-|
|------------------------------------------------------------------|

|--------------------------------------------------|
|--------------------------------------------------|
|-999999999999999911111111111111111313131313131313-|
|--------------------------------------------------|
|-7777777777777777-9-9-9-9-9-9-9-91111111111111111-|
|--------------------------------------------------|

|----------------------------------|
|----------------------------------|
|-66666666666666666666666644444444-|
|----------------------------------|
|-44444444444444444444444422222222-|
|----------------------------------|

Chorus
|------------------------------------------------------------------|
|------------------------------------------------------------------|
|-------------------------------------------------6666666644444444-|
|-999999999999999999999999999999996666666666666666-----------------|
|-7777777777777777777777777777777744444444444444444444444422222222-|
|------------------------------------------------------------------|

|------------------------------------------------------------------|
|------------------------------------------------------------------|
|-------------------------------------------------6666666644444444-|
|-999999999999999999999999999999996666666666666666-----------------|
|-7777777777777777777777777777777744444444444444444444444422222222-|
|------------------------------------------------------------------|

Outro
|----------------|
|----------------|
|-2~----------2~-|
|-2~----------2~-|
|-0~----------0~-|
|----------------|

|------|
|------|
|-999\-|
|-999\-|
|-777\-|
|------|


Verse 1

Stale as a 2 day half full beer 
Cigarette boats float around in here
A field in my gut lacking sunshine
Put down like a teenagers first drink
I cough up compliments I Think
You're better off walking away while you still can

She was passing through to climb a hill
As you slipped and slid on my gut spill
My better half was praying for you to fall
 
Verse 2

Rotten like a 3 week half full glass
Of breast milk drunken off my ass
I would give anything to erase the past nine years of my life
Put down like a prostitute in court
All liberty soon to abort
Like my sanity, like thoughts of you. 

She was passing through to climb a hill
As you slipped and slid on my gut spill
My better half was praying for you to fall
 
Chorus

Praying for you to fall
So pitiful
Praying for you to fall
I'm fuckin' pitiful

Chorus

Praying for you to fall
So pitiful
Praying for you to fall
So fuckin' pitiful
Comments