Alkaline Trio - Armageddon Chords & Tabs

 

Armageddon Chords & Tabs

Alkaline Trio Chords & Tabs

Version: 2 Type: Tab 0 ratings
1 star 2 stars 3 stars 4 stars 5 stars
comments

Armageddon Tab

-------------------------------------------------------------------------------
Armageddon Ė Alkaline Trio
-------------------------------------------------------------------------------

This is one of the songs of there album from here to infirmary! It sounds
right to me! But lets see what you think! The song out line might look a little 
confusing but youíll get it! And the Rhythm isnít perfect! But hey Iím only new 
to this!

INTRO 1
e|------------------------|
B|------------------------|
G|-99x99-66---------------|
D|-99x99-66-77------------|
A|-77x77-44-77------------|
E|----------55------------|

INTRO 2
e|---------------------------|
B|---------------------------|
G|-999999-88-----------------|
D|-xxxxxx-xx--9999-----------|
A|-777777-66--9999-----------|
E|------------7777-----------|

VERSE 1
e|--------------------------------|
B|--------------------------------|
G|-66666-------99999--------------|
D|-66666-77777-99999--------------|
A|-44444-77777-77777--------------|
E|-------55555--------------------|
[ Tab from: http://www.guitartabs.cc/tabs/a/alkaline_trio/armageddon_tab_ver_2.html ]
VERSE 2
e|--------------------------------|
B|--------------------------------|
G|-66666--------------------------|
D|-66666-77777-22222--------------|
A|-44444-77777-22222--------------|
E|-------55555-00000--------------|

CHORUS
e|---------------------------------------------------|
B|---------------------------------------------------|
G|-9999999999--66666666--444444444-------------------|
D|-xxxxxxxxxx--66666666--444444444--777777777--------|
A|-7777777777--44444444--222222222--777777777--------|
E|----------------------------------555555555--------|

VERSE 3
e|-------------------|
B|-------------------|
G|-6-----9-----------|
D|-6--7--9-----------|
A|-4--7--7-----------|
E|----5--------------|

INTERLUDE
e|--------------------------------------|
B|--------------------------------------|
G|-6666666--88888888--999999999---------|
D|-6666666--88888888--999999999---------|
A|-4444444--66666666--777777777---------|
E|--------------------------------------|

INRTO 1 x2
INTRO 2 x1
VERSE 1 x3
VERSE 2 x1
INTRO 1 x2
VERSE 1 x3
VERSE 2 x1
CHORUS x2
INTRO 1 x2
INTRO 2 x1
VERSE 3 x1
VERSE 1 x2
VERSE 2 x1
CHORUS x2
INTERLUDE x4
CHORUS x2

ENJOY

===============================================================================
Comments